Oops, an error
Loading. Please wait.

Getaway intro tab

718 views 1 this week
2 commentsread comments
1 2 3 4 5
x 3
add to favorites
×
Save as Personal and add changes to this tab that will be seen only by you. Learn more ›
×
You can save this tab as Personal to edit and correct it or add notes. All changes will be seen only by you. Learn more »
launch autoscroll
font size
0
reset
how to read this tab
guitar tuner
edit
Autoscroll
slow
fast
+/-
esc
set tempo
stop
Author
E -----12------12------11h12--------|
B ---10--10--10--10--10-------------|
G -11------9-------11---------------|
D ----------------------------------|    x2
A ----------------------------------|
E ----------------------------------|

that's all i've got for you. Punchline songs are so hard to tab. But that's what makes 
the best band of FBR.


please rate.

            
            
Suggest correction
Creating personal tab
Creating personal tab
You can edit any tab online and save it as your Personal.

You can edit, replace or remove any tab part or add personal notes – all changes will be seen only by you.

Personal tabs can be accessed anytime from any device, even offline.
Learn more »
Give kudos to tab author, rate the tab!
1 2 3 4 5
comments
print report bad tab
2 comments total.
0 reply
mjplumridge 10 Sep 05, 2013 02:18 AM

I'm not sure your tab is quite right. Try this instead?

E -----12------12------- 12---|-----12------12------- 12\10-9|
B ---10--10--10--10----10-----|---10--10--10--10----10-------|
G -11----------------11-------|-11----------------11---------|
D ---------11------12---------|---------11------12-----------|
A ----------------------------|------------------------------|
E ----------------------------|------------------------------|

0 reply
mjplumridge 10 Sep 05, 2013 02:19 AM

Umm... don't know what happened there! (is there an edit button?)
E -----12------12------- 12---|-----12------12------- 12\10-9|
B ---10--10--10--10----10-----|---10--10--10--10----10-------|
G -11----------------11-------|-11----------------11---------|
D ---------11------12---------|---------11------12-----------|
A ----------------------------|------------------------------|
E ----------------------------|------------------------------|

guest
You may want to rate the tab now too:
select rating
Wanna post a correction for this tab? Suggest correction