Oops, an error
Loading. Please wait.

Car-K-Man tab

version 1
version 1

Whole song

28 views 1 this week
no commentswrite comment
1 2 3 4 5
3 more votes to show rating
add to favorites
×
Save as Personal and add changes to this tab that will be seen only by you. Learn more ›
×
You can save this tab as Personal to edit and correct it or add notes. All changes will be seen only by you. Learn more »
launch autoscroll
font size
0
reset
how to read this tab
guitar tuner
edit
Autoscroll
slow
fast
+/-
esc
set tempo
stop
esta cancion es la mejor de este grupo ahi les va.

Intro:

e|-----------------------------------------------------|
b|-----------------------------------------------------|
g|-----------------------------------------------------|
d|------2----------------2-------3-2-0-----------------|
a|--3-3---3-------2---0-0-0----------------------------|
E|------------3-3---3---------1------------------------|

C5                                     C5                  
hoy dia me enkontre kon un viejo amigo el es muy buena gente y tambien
        D5                   E5  F5-E5-F5  C5 
cochino yo te lo digo por k es konocido su olor.


e|-----------------------------------------------------|
b|-----------------------------------------------------|
g|-----------------------------------------------------|
d|------2----------------2-------3-2-0-----------------|
a|--3-3---3-------2---0-0-0----------------------------|
E|------------3-3---3---------1------------------------|
C5                                     C5
cuando lo konoci sabia k era especial se llama jorge pero le dicen 
           D5                   E5    F5-E5-F5            C5            
CAR-K-Man no se por ke el apodo ni por k huele mal lo unico k se es ke 
D5       E5
le dicen car-k-man

Coro:

e|-----------------------------------------------------|
b|-----------------------------------------------------|
g|-----------------------------------------------------|
d|------2----------------2-------3-2-0-----------------|
a|--3-3---3-------2---0-0-0----------------------------|
E|------------3-3---3---------1------------------------|

Carkman hueles muy mal andate a bañar carkaman hueles tan mal k se va carcaman

C5                                         C5                             
poco a poco fui notando su olor peculiar por mas k t eches colonia huevon no vas 
         D5                      E5 F5-E5-F5            C5         D5      E5
engañar, no t das cuenta k nadie se te accercara no pierdas tiempo y largate a 
f5-e5-f5
bañar carkaman.

coro.

solo:


e|---------------------------------------------------------------------------|
b|---------------------------------------------------------------------------|
g|------------4-5-4----------4-5-4------------4-5-4--------------------------|
d|--55555555--2-3-2----------2-3-2------------2-3-2---33333333---------------|
a|--33333333--------5555555----------777777777--------33333333---------------|
E|------------------3333333----------555555555--------11111111---------------|


despues el punte4o k esta bien pendejo y luego dos veces el coro y ya esta 

si se sacan el punteo pasenmelo a mi email.

saludos a el'choro'torres,mellygeroge,ANAlva,a mani,condorluxo,jeropa,cholo
y a nadie mas

            
            
Suggest correction
Creating personal tab
Creating personal tab
You can edit any tab online and save it as your Personal.

You can edit, replace or remove any tab part or add personal notes – all changes will be seen only by you.

Personal tabs can be accessed anytime from any device, even offline.
Learn more »
Give kudos to tab author, rate the tab!
1 2 3 4 5
comments
print report bad tab
guest
Wanna post a correction for this tab? Suggest correction