Oops, an error
Loading. Please wait.

Lunes tab

7 views 1 this week
no commentswrite comment
1 2 3 4 5
3 more votes to show rating
add to favorites
×
Save as Personal and add changes to this tab that will be seen only by you. Learn more ›
×
You can save this tab as Personal to edit and correct it or add notes. All changes will be seen only by you. Learn more »
launch autoscroll
font size
0
reset
how to read this tab
guitar tuner
edit
Autoscroll
slow
fast
+/-
esc
set tempo
stop
       E5          C#5         A5         B5
|-x-x-----------------------------------------------|
|-x-x-----------------------------------------------|
|-8/9-----------------------------------------------|
|-x-x-------6-7-6-------6-7-6--------7----------9---| x2
|-6/7--7-xx--------4-xx------------7---7------9---9-|
|-x-x--------------------------5-x--------7-x-------|


E5 -Bajo- C#5 -Bajo- A5 -Bajo- B5 -Bajo-  A|-7-9-11-11-|


|----------------------------------------------------|
|----------------------------------------------------|
|-99--9-9-7-6-66-6-6-4-2-----------------------------|
|-99----------66---------77----------99--------------|
|-77----------44---------77-7-7-9-11-99-9-7-9-11-9-7-|
|------------------------55----------77--------------|


 E5         C#5         A5            B5
Todos los lunes tan temprano por la mañana
 E5          C#5        A5           B5
me llega al pincho levantarme de la cama
 E5          C#5      A5      B5
kiero dormir por esa tonta resaca
 E5          C#5         A5            B5
Pues buenas noches, tengo sueño y KIERO DORMIR!
E5 C#5 A5 B5
           KIERO DORMIR!
E5 C#5 A5 B5

|-------------------------------|
|-------------------------------|
|-9-9-11-11-11-9-9-9--11-11-9-8-|
|-x-x-x--x--x--x-x-x--x--x--x-x-| x2
|-7-7-9--9--9--7-7-7--9--9--7-6-|
|-------------------------------|

 E5      C#5
8 am empiezan las clases
 A5             B5
puta madre! me toka lenguaje
 E5       C#5      A5      B5
No tengo ganas, cada dia estudiar
 E5   C#5    A5      B5
solo kiero fumar y chupar POR AHI!
E5 C#5 A5 B5
           POR AHI!
E5 C#5 A5 B5
           POR AHI!
E5 C#5 A5 B5
           POR AHI!
E5 C#5 A5 B5


[bajo]


E5 C#5 A5 B5 x4


|---------------------------------------------|
|-9999---9---7-------9999---9---12-10-9-7-----|
|-----9-9-9-9-9-8-9------9-9-9-9---------9----|
|---------------------------------------------|
|---------------------------------------------|
|---------------------------------------------|

|---------------------------------------------|
|---------------------------------------------|
|-9999-8-8-99-8-11-9-8-9-6-8-6-6--------------|
|--------------------------------77-7-9-7-6---|
|-------------------------------------------9-|
|---------------------------------------------|


E5 -Bajo- C#5 -Bajo- A5 -Bajo- B5 -Bajo-


 E5 C#5 A5 B5  Em

            
            
Suggest correction
Creating personal tab
Creating personal tab
You can edit any tab online and save it as your Personal.

You can edit, replace or remove any tab part or add personal notes – all changes will be seen only by you.

Personal tabs can be accessed anytime from any device, even offline.
Learn more »
Give kudos to tab author, rate the tab!
1 2 3 4 5
comments
print report bad tab
guest
Wanna post a correction for this tab? Suggest correction