Oops, an error
Loading. Please wait.

Te Necesito tab

19 views 1 this week
no commentswrite comment
1 2 3 4 5
3 more votes to show rating
add to favorites
×
Save as Personal and add changes to this tab that will be seen only by you. Learn more ›
×
You can save this tab as Personal to edit and correct it or add notes. All changes will be seen only by you. Learn more »
launch autoscroll
font size
0
reset
how to read this tab
guitar tuner
edit
Autoscroll
slow
fast
+/-
esc
set tempo
stop
Esta canion es chever tiene algo raro..
que no se que xD
bueno aqui esta para ustedes
asi que toquenla pues


|---------------------|
|---------------------|
|----0---------0------|
|--0--0-4-0--0--0-4-0-|
|-----------3-3--3----|
|-3-3--3--------------|
                              x2
|--------------------------|
|--------------------------|
|--------------------------|
|--0--9-0--7-0--0--7-0-4-5-|
|-7-7-----7----5-5----5----|
|--------------------------|


 G5   G5 C5   C5 E5    E5 D5
|-------|-------|--------|--------|
|-------|-------|--------|--------|
|-------|-------|--------|--------|
|--5-4--|--5-4--|--9-7-5-|--4-5-4-| x2
|-----5-|-----5-|--------|--------|
|-------|-------|--------|--------|


G5           C5
Hace muecho tiempo
        E5
que yo siento
        D5
que me falta algo

G5       C5
Y tanto deseo
       E5
que me pase
      D5
algo inesperado

G5   C5
Que  llene
  E5
ese vacio
  D5
que hay en mi

G5             C5
Llene las iluciones
            E5
que hay en mi
       D5
para poder vivir feliz

|-------------------|
|-------------------|
|---0--0-----0--0---|
|--0--0--0--0--0--0-|
|----------3--3--3--|
|-3--3--3-----------|
                        x2
|-------------------|
|-------------------|
|---0--0-----0--0---|
|--0--0--0--0--0--0-|
|-7--7--7--5--5--5--|
|-------------------|


G5       A5        Em   C5-B5-A5
Te necesito a mi lado
G5       A5      Em   C5-B5-A5
Te necesito conmigo
G5   A5         Em
para que llenes ese vacio
C5  B5   A5
que hay en mi
G5      A5    Em
Te necesito para
C5     B5   A5
Poder sobrevivir

|---------------------|
|---------------------|
|----0---------0------|
|--0--0-4-0--0--0-4-0-|
|-----------3-3--3----|
|-3-3--3--------------|
                              x2
|--------------------------|
|--------------------------|
|--------------------------|
|--0--9-0--7-0--0--7-0-4-5-|
|-7-7-----7----5-5----5----|
|--------------------------|

G5          C5
Hace mucho tiempo
       E5
que yo se
           D5
que si no hago algo

G5              C5
Te perderia por siempre
              E5  D5
Ya yo terminaria acabado

G5 C5       E5
Tu eres el aire
    D5
que yo respiro

G5       C5
Eres la ilucion
          E5   D5
por la que vivo


G5       A5        Em   C5-B5-A5
Te necesito a mi lado
G5       A5      Em   C5-B5-A5
Te necesito conmigo
G5   A5         Em
para que llenes ese vacio
C5  B5   A5
que hay en mi
G5      A5    Em
Te necesito para
C5     B5   A5  G5
Poder sobrevivir

|--------------------------------------------|
|--------------------------------------------|
|--------------------------------------------|
|--------------------------------------------|
|---10--10--10--9--9--9--9--10--12--10--9-10-|
|-10--10--10--10-10-10-10-10--10--10--10-----|

G5       A5        Em   C5-B5-A5
Te necesito a mi lado
G5       A5      Em   C5-B5-A5
Te necesito conmigo
G5   A5         Em
para que llenes ese vacio
C5  B5   A5
que hay en mi
G5      A5    Em
Te necesito para
C5     B5   A5  G5
Poder sobrevivir

|---------------------|
|---------------------|
|----0---------0------|
|--0--0-4-0--0--0-4-0-|
|-----------3-3--3----|
|-3-3--3--------------|
                              x2
|--------------------------|
|--------------------------|
|--------------------------|
|--0--9-0--7-0--0--7-0-4-5-|
|-7-7-----7----5-5----5----|
|--------------------------|


Listo creo que esta bien
Tal vez no este bien centrada la letra
pero ahi estan las notas ya uds lo hacen

            
            
Suggest correction
Creating personal tab
Creating personal tab
You can edit any tab online and save it as your Personal.

You can edit, replace or remove any tab part or add personal notes – all changes will be seen only by you.

Personal tabs can be accessed anytime from any device, even offline.
Learn more »
Give kudos to tab author, rate the tab!
1 2 3 4 5
comments
print report bad tab
guest
Wanna post a correction for this tab? Suggest correction