Oops, an error
Loading. Please wait.

Un Poco De Rock chords

by Punkora
52 views 1 this week
no commentswrite comment
1 2 3 4 5
3 more votes to show rating
add to favorites
×
Save as Personal and add changes to this tab that will be seen only by you. Learn more ›
×
You can save this tab as Personal to edit and correct it or add notes. All changes will be seen only by you. Learn more »
launch autoscroll
font size
0
reset
transpose
0
reset
display chords
guitar tuner
edit
Autoscroll
slow
fast
+/-
esc
set tempo
stop
Strumming
There is no strumming pattern for this song yet. and get +5 IQ
esta  muy facil...pero si keda mal subida es xq es la primera ves
subo una kancion...


en la intro primero suena la bateria...

luego entra el bajo haciendo...


e|-------------------------------------------------------------
B|-------------------------------------------------------------
G|-------------------------------------------------------------
D|-------------------------------------------------------------
A|---3-0-6-5-5-----3-0-----------------------------------------
E|---------------------3-5-5-----------------------------------(x2)

despues entra la guitarra haciendo...

C-A-E#-D-C-A-G-LA


ESTROFA...(A)

C         A        E#            D
Un poko de rock pa' q bailen los muertos

C          A     B        A
Un poko de rock para el korazon

C         A        E#            D
Un poko de rock q haga mover los guesos

C          A     B         A
Un poko de rock para kada rinkon

(B)

C          D
Un poko de rock...

              B-A
para los olvidados

C          D
Un poko de rock...

            B-A
para el prededor

C          D
Un poko de rock...

                B-A
pa' liberar tenciones

C          D
Un poko de rock...


estrofa...(A)

C         A        E#            D
Un poko de rock para ver a los amigos

C          A     B        A
Un poko de rock para un nuevo amor

C         A        E#     D
Un poko de rock para kada kaida

C          A     B        A
Un poko de rock pa' kada korazon


(B)

C          D
Un poko de rock

                   B-A
para estar siempre juntos

C          D
Un poko de rock

            B-A
pa la separación

C          D
Un poko de rock

                 B-A
para kantar al viento

C-D...

(C)

C   A    E#    D
Vamos a morir de rock (x4)


estrofa...(A)


C          D
Un poko de rock

                 B-A
para matar los miedos


C          D
Un poko de rock

             B-A
para kada kancion

C          D
un poko de rock

                    B-A
pa' q bailen los muertos

C-D

(AKI IGUAL Q EN LA INTRO)


e|-------------------------------------------------------------
B|-------------------------------------------------------------
G|-------------------------------------------------------------
D|-------------------------------------------------------------
A|---3-0-6-5-5-----3-0-----------------------------------------
E|---------------------3-5-5-----------------------------------(x2)


(C)

C   A    E#     D
vamos a morir de rock (x8)


WENO KABROS....
AI TA..A MIPARECER SUENA AL 100%
PERO SI ESTA MAL AI USTEDES LA KORRIGEN PO!!
IA SE LA KUIDAN KAUROS Y UN SALUO PAL JOSE Q LE GUSTA ESTA KANCION

XAO....


AGUANTE EL PUNK ROCK XILENO!!!

            
            
Suggest correction
Creating personal tab
Creating personal tab
You can edit any tab online and save it as your Personal.

You can edit, replace or remove any tab part or add personal notes – all changes will be seen only by you.

Personal tabs can be accessed anytime from any device, even offline.
Learn more »
Give kudos to tab author, rate the tab!
1 2 3 4 5
comments
print report bad tab
guest
Wanna post a correction for this tab? Suggest correction