Oops, an error
Loading. Please wait.

Disconnection Notice bass

version 3
version 3

Whole song

Interactive

by Pupil
1,106 views 1 this week
1 commentread comment
1 2 3 4 5
1 last vote to show rating
add to favorites
×
Save as Personal and add changes to this tab that will be seen only by you. Learn more ›
×
You can save this tab as Personal to edit and correct it or add notes. All changes will be seen only by you. Learn more »
launch autoscroll
font size
0
reset
guitar tuner
edit
Autoscroll
slow
fast
+/-
esc
set tempo
stop
INTRO:
G|---------|
D|---------|
A|---------|
E|--55-55--|8x

G|----------------|
D|----------------|
A|--5--3------5--3|
E|---------5------|

PRE VERSE:
G|----------------|
D|----------------|
A|----------------|
E|--5-3-5-3-5-3-5-|

VERSE:
G|---------------------------------------------------------|
D|---------------------------------------------------------|
A|-/12-10-12-10-12-10-12-10-12-10-12-10-10-9-9h10-10-9-9h10|
E|---------------------------------------------------------|2x

CHORUS
G|-----------------|
D|-----------------|
A|-------6---------|
E|--55-55--55-55-0-|4x

G|-----------------555|
D|--------------------|
A|--5--3------5--3----|
E|---------5----------|2x

PRE VERSE:
G|----------------|
D|----------------|
A|----------------|
E|--5-3-5-3-5-3-5-|

VERSE2:
G|---------------------------------------------------------|
D|---------------------------------------------------------|
A|-/12-10-12-10-12-10-12-10-12-10-12-10-10-9-9h10-10-9-9h10|
E|---------------------------------------------------------|2x

CHORUS
G|-----------------|
D|-----------------|
A|-------6---------|
E|--55-55--55-55-0-|4x

G|-----------------555|
D|--------------------|
A|--5--3------5--3----|
E|---------5----------|3x

G|-------------------------|
D|-------------------------|
A|--5--3------5-break-3----|
E|---------5---------------|

ADLIB 

G|--------------------|
D|--------------------|
A|--------------------|
E|--5-5-11-11-5-5-0-0-|8x
pa slide yung part na toh,

G|---------------------------|
D|---------------------------|
A|---------------------------|
E|--5-3-5-3-5-3-5-3-5-3-5-3-5|

E|-----------------|
D|-----------------|
A|-----------------|
E|--55-55--55-55-0-|4x

E|-----------------|
D|-----------------|
A|-------6---------|
E|--55-55--55-55-0-|4x

    turn  off    the lights
E|-------------------------|
D|-------------------------|
A|----5-----3------5----5--|
E|-------------------------|

this is not so very accurate pero kayo na bahala!this song is so good!
groovy kaya ayos sa mga nanunuod!yeah

CENTRAL SCENE
roy-vox
paul-lead guitarist
jet-drums
ace-bassist

yown tnx!


            
            
Suggest correction
Creating personal tab
Creating personal tab
You can edit any tab online and save it as your Personal.

You can edit, replace or remove any tab part or add personal notes – all changes will be seen only by you.

Personal tabs can be accessed anytime from any device, even offline.
Learn more »
Give kudos to tab author, rate the tab!
1 2 3 4 5
comments
print report bad tab
1 comment total.
0 reply
nirvana_14 52 Jul 13, 2010 04:51 AM

dude accurate to hehe.. you're a wonderful bassist..

guest
Wanna post a correction for this tab? Suggest correction