Oops, an error
Loading. Please wait.

Disconnection Notice bass

version 4
version 4

Whole song

Interactive

by Pupil
391 views 3 this week
3 commentsread comments
1 2 3 4 5
3 more votes to show rating
add to favorites
×
Save as Personal and add changes to this tab that will be seen only by you. Learn more ›
×
You can save this tab as Personal to edit and correct it or add notes. All changes will be seen only by you. Learn more »
launch autoscroll
font size
0
reset
guitar tuner
edit
Autoscroll
slow
fast
+/-
esc
set tempo
stop
Author
Song: Disconnection Notice
Artist: Pupil
tuning: standard
Tabbed by: Emmanuel Paulo Galarosa

legend
b-bend
p-pull off


intro
enters after the fourth repeatition of the lead
G|------------------------------|
D|------------------------------|
A|------------------------------|4x
E|-----55--55--55--55-----------|

then

G|------------------------------|
D|------------------------------|
A|-----5--3----0---5----3-------|
E|------------------------------|


Verse

G|------------------------------|
D|------------------------------|
A|------------------------------|
E|------5----3-5---3-5---3-5----|


  "There is no escaping...........
G|------------------------------|
D|------------------------------|
A|------------------------------|2x
E|---5--3-5--3--5--3------------|

   "all that you hold.....
G|------------------------------|
D|------------------------------|2x
A|------------------------------|
E|---3-3-3b---3-----------------|
    (slight bend only)


  "I could not believe......
G|------------------------------|
D|------------------------------|
A|------------------------------|x2
E|---5--3-5--3--5--3------------|


   "but i can't let you go...
G|------------------------------|
D|------------------------------|2x
A|------------------------------|
E|---5-5-5b---5-----------------|
(slight bend only)

Chorus
"so turn on the lights now"
G|------------------------------|
D|------------------------------|
A|-------------6----------------|4x
E|-----55--55-----55--55--0-----|
"disco.....
G|-----------------------------|----5p4-5p4-5p4---      ---------------|
D|-----------------------------|------------------      10p9-10p9-10p9-|
A|-----5--3----0---5----3------|------------------x2 or ---------------|x2
E|-----------------------------|------------------      ---------------|


repeat verse

Chorus
"so turn on the lights now"
G|------------------------------|
D|------------------------------|
A|-------------6----------------|4x
E|-----55--55-----55--55--0-----|
"disco.....
G|------------------------------|----5p4-5p4-5p4--     ---------------|
D|------------------------------|-----------------     10p9-10p9-10p9-|
A|-----5--3----0---5----3-------|-----------------x3 or---------------|x3
E|------------------------------|-----------------     ---------------|


G|------------------------|
D|------------------------|
A|-----5--3----0---5----3-|
E|------------------------|
bridge

G|------------------------------|
D|------------------------------|
A|-------6----------------------|x8
E|--5555-- 5555--0--------------|


outro
G|---------------------------------------------------|
D|---------------------------------------------------|
A|---------------------------------------------------|
E|------5----3-5---3-5---3-5---3-5---3-5---3-5---3-5-|

G|------------------------------|
D|------------------------------|
A|------------------------------|8x
E|-----55--55-----55--55--0-----|


   "turn....0ff.........the lights

G|------------------------------|
D|------------------------------|
A|------------------------------|
E|---5-------5-----------5-5----|

----------------------------------------------------------------

there you go...
natapos din.
nilakasan ko na ng todo yung bass kaya i'm 99% sure
sinabayan ko yung kanta para malaman kung magkatunog yung bawat nota.
baka my error pa sa pagtype ko... tsk
comments nlng po kayo.. specter_epg@yahoo.com.

            
            
Suggest correction
Creating personal tab
Creating personal tab
You can edit any tab online and save it as your Personal.

You can edit, replace or remove any tab part or add personal notes – all changes will be seen only by you.

Personal tabs can be accessed anytime from any device, even offline.
Learn more »
Give kudos to tab author, rate the tab!
1 2 3 4 5
comments
print report bad tab
3 comments total.
0 reply
vendettas 30 Jan 15, 2010 09:37 AM

sabi na nga ba my error ako sa pg type.. panu ba mg edit ng tab ko???????? me tama pa ko ngaun kaya di ko maayos.. hahaha

0 reply
vendettas 30 Jan 31, 2010 02:33 AM

ok wala nkong error.

0 reply
vendettas 30 Jan 31, 2010 02:35 AM

ok wala nkong error.

guest
You may want to rate the tab now too:
select rating
Wanna post a correction for this tab? Suggest correction