Oops, an error
Loading. Please wait.

Nasaan Ka bass

version 2
version 2

Whole song

Interactive

by Pupil
681 views 1 this week
no commentswrite comment
1 2 3 4 5
3 more votes to show rating
add to favorites
×
Save as Personal and add changes to this tab that will be seen only by you. Learn more ›
×
You can save this tab as Personal to edit and correct it or add notes. All changes will be seen only by you. Learn more »
launch autoscroll
font size
0
reset
guitar tuner
edit
Autoscroll
slow
fast
+/-
esc
set tempo
stop
Nasaan Ka 
Pupil

kaninang umaga nagising ako may bakas ng ngiti sa mukha
G|----------|----------|----------|----------|
D|----------|-44444444-|-77777777-|-77777777-|
A|-55555555-|----------|----------|----------|
E|----------|----------|----------|----------|

kasama kita sa aking panaginip sasabihin ko dapat sa'yo
G|----------|----------|----------|----------|
D|----------|-44444444-|-77777777-|-77777777-|
A|-55555555-|----------|----------|----------|
E|----------|----------|----------|----------|

pero wala ka na
G|----------|----------|
D|----------|----------|
A|-55555555-|----------|
E|----------|-22222222-|

wala ka na, wala
G|----------|----------|
D|----------|-44444444-|
A|----------|----------|
E|-55555555-|----------|

wala ka na aahh...
G|----------|----------|----------|----------|
D|----------|----------|----------|----------|
A|-55555555-|----------|----------|----------|
E|----------|-22222222-|-55555555-|-55555555-|

nanlilisik, namimilipit sa galit
G|----------|----------|----------|----------|
D|----------|-44444444-|----------|----------|
A|-55555555-|----------|----------|----------|
E|----------|----------|-55555555-|-55555555-|

umiikot ang aking paningin sa mga tanong na di kayang sagutin
G|----------|----------|----------|----------|
D|----------|-44444444-|----------|----------|
A|-55555555-|----------|----------|----------|
E|----------|----------|-55555555-|-55555555-|

di na makikita di na mahawakan ang maganda mong mukha pagkat
G|----------|----------|----------|----------|
D|----------|-44444444-|----------|----------|
A|-55555555-|----------|----------|----------|
E|----------|----------|-55555555-|-55555555-|

wala ka na
G|----------|----------|
D|----------|----------|
A|-55555555-|----------|
E|----------|-22222222-|


wala ka na, wala
G|----------|----------|
D|----------|-44444444-|
A|----------|----------|
E|-55555555-|----------|

wala ka na aahh...
G|----------|----------|----------|----------|
D|----------|----------|----------|----------|
A|-55555555-|----------|----------|----------|
E|----------|-22222222-|-55555555-|-55555555-|

  nasaan ka, 
G|----------|----------|----------|----------|
D|----------|----------|----------|----------|
A|----------|----------|-55555555-|-55555555-|
E|-33333333-|-00000000-|----------|----------|

  nasaan ka, 
G|----------|----------|-------------|-----------|
D|-55555555-|----------|-5-7-5/9-7-5-|-7-5-------|
A|----------|-22222222-|-------------|-----7-5---|
E|----------|----------|-------------|--------55-|

 

  nawala lang parang bula
G|----------|----------X-|
D|-55555555-|----------X-|
A|----------|-22222222-X-|
E|----------|----------X-|

(4 bars - Guitar adlib / Bass Rest here, then . . . )

(Filler)
G|----------|----------|----------|----------|
D|----------|----------|-77777777-|-44444444-|
A|----------|----------|----------|----------|
E|-22222222-|-55555555-|----------|----------|

(4 bars - Drum Solo here, then . . . )

(Guitar only / Bass Rest, with Anticipation)

wala ka na   wala ka na, wala 
G|----------|----------|----------|----------|
D|----------|----------|----------|----------|
A|----------|----------|----------|----------|
E|----------|----------|----------|----------|

wala ka na                        ...aahh
G|----------|----------|----------|----------|
D|----------|----------|----------|------777-|
A|----------|----------|----------|----------|
E|----------|----------|----------|----------|

(Adlib)

G|----------|----------|------------|-------------7(7)-|
D|----------|----------|-------7(7)-|-----7(7)---------|
A|-55555555-|-55555555-|-555555-----|-5(5)----5(5)-----|
E|----------|----------|------------|------------------|

G|------------|-------------7(7)-|----------|-----------|
D|-------7(7)-|-----7(7)---------|----------|-----------|
A|-555555-----|-5(5)----5(5)-----|-55555555-|-55555555/-|
E|------------|------------------|----------|-----------|

 

mahahanap din kita
G|----------|----------|----------|------------|
D|----------|----------|-55555555-|-55555555\4-|
A|-55555555-|-77777777-|----------|------------|
E|----------|----------|----------|------------|

mahahanap din kita
G|----------|----------|----------|------------|
D|----------|----------|-55555555-|-55555555\4-|
A|-55555555-|-77777777-|----------|------------|
E|----------|----------|----------|------------|

mahahanap din kita (kung may langit nga ba)
G|----------|----------|----------|------------|
D|----------|----------|-55555555-|-55555555\4-|
A|-55555555-|-77777777-|----------|------------|
E|----------|----------|----------|------------|

mahahanap din kita
G|----------|----------|----------|----------|
D|----------|----------|----------|----------|
A|-55555555-|----------|----------|----------|
E|----------|-00000000-|-33333333-|-33333333-|

mahahanap din kita
G|----------|----------|----------|----------|
D|----------|----------|----------|----------|
A|-55555555-|----------|----------|----------|
E|----------|-00000000-|-33333333-|-33333333-|

mahahanap din kita aahh...						
G|----------|----------|----------|----------|----------|
D|----------|----------|----------|----------|----------|
A|-55555555-|----------|----------|----------|-5~~~~~~~~|
E|----------|-00000000-|-33333333-|-33333333-|----------|

Or

G|----------|----------|----------|---------------------|
D|----------|----------|----------|-5-7-5-9-7-5-7-5-----|
A|-55555555-|----------|----------|-----------------7-5-|
E|----------|-00000000-|-33333333-|---------------------|

            
            
Suggest correction
Creating personal tab
Creating personal tab
You can edit any tab online and save it as your Personal.

You can edit, replace or remove any tab part or add personal notes – all changes will be seen only by you.

Personal tabs can be accessed anytime from any device, even offline.
Learn more »
Give kudos to tab author, rate the tab!
1 2 3 4 5
comments
print report bad tab
guest
Wanna post a correction for this tab? Suggest correction