Oops, an error
Loading. Please wait.

Ivory Coast chords

version 2
version 2

Whole song

232 views 1 this week
no commentswrite comment
1 2 3 4 5
1 last vote to show rating
add to favorites
×
Save as Personal and add changes to this tab that will be seen only by you. Learn more ›
×
You can save this tab as Personal to edit and correct it or add notes. All changes will be seen only by you. Learn more »
launch autoscroll
font size
0
reset
transpose
0
reset
simplify chords
display chords
guitar tuner
edit
Autoscroll
slow
fast
+/-
esc
set tempo
stop
Strumming
There is no strumming pattern for this song yet. and get +5 IQ
-------------------------------------------------------------------------------
                             Ivory Coast - Pure Bathing Culture
-------------------------------------------------------------------------------
Tabbed by: me
E-mail: no

Tuning: Standard, Capo on 2nd
From here: https://www.youtube.com/watch?v=CukaND7hGY4
Slightly different from Beardy session.

---------------------------------------------------------------------------------
"Odd" Chords used

  Csus4   Em7 (actually Em7addC)  Fdim/G#
e|--0------0------------------------x-------|
B|--1------1------------------------x-------|
G|--0------0------------------------4-------|
D|--3------0------------------------3-------|
A|--3------2------------------------x-------|
E|--x------x------------------------4-------|

Intro:
   C                    Am       Fmaj7             C                    Am
e|---------------0--------------------------------------------------------------|
B|-----------------3-1--------1-------------------------------------------------|
G|--------0-1-------------2--------2-----0h2p0-------0----------------------2---|
D|----0-2-----2---------2---2----3---3---3------3--2------2----0---3----2-----2-|
A|--3---------------------------------------------------3---3-------------0-----|
E|---------------------------------------------------------------3---4----------|

   Fmaj7        C    (   fill*  )  C                Am       C               G    
e|--------------------3---0-------------------0----------------------------------|
B|---1------------------1---3-1-----------------3-1--------------------------0---|
G|-----2-----0--------------------------0-1-----------2---0---------------0--0---|
D|-3-----3---2----2-----------------0-2-----2-------2---2------2------0-2----0---|
A|--------------3-----------------3--------------------------3---3---3-------x---|
E|--------------------------------------------------------------(3)----------3---|

   G    Fdim/G#  Am       Fmaj7    C      
e|---------------0-0--0---0-0---0--0---
B|-0-0-----------1-1--1---1-1---1--1---
G|-0-0---4--4----2-2--2---2-2---2--0---
D|-0-0---3--3----2-2--2---3-3---3--0---
A|-x-x---x--x----0-0--0----------------
E|-3-3---4--4--------------------------|

C   Csus4 C  Csus4 (End of Intro)

Verse 1:

C          Csus4 C         Csus4 C           Csus4 C
I would rest my heart upon your silver screen

C Em7 Am7   Fmaj7     C    Csus4 C Csus4
Colored lines, black and gold

C          Csus4 C         Csus4 C         Csus4 C
I would press my hand upon your window pane

C Em7 Am7   Fmaj7     C    Csus4
Every time, black and gold,

C Em7 Am7   Fmaj7     C    Csus4 C Csus4
Always mine, black and gold.

Chorus:

C                    E7              Am      Fmaj7    
I know that you will love me till my eyes do close,

G               Fdim/G#  Am    Fmaj7 C  (fill*)
   You're what I love the most.

C                    E7              Am       Fmaj7
I pray that you will keep me where the starlings pose,

G           Fdim/G# Am   Fmaj7 C  
   Along the Ivory Coast.

Verse 2:

C          Csus4 C         Csus4 C           Csus4 C
I could walk for miles wit- you until you're tired

C Em7 Am7   Fmaj7     C    Csus4 C (fill*)
Along the shore, black and gold

C                    Am    G       C      Csus
Tell you you're the only one that I admire

C Em7 Am7   Fmaj7     C    Csus4
Always mine, black and gold

C Em7 Am7   Fmaj7     C    Csus4 C Csus4
Every time, black and gold.

Repeat chorus twice, then...

G           Fdim/G# Am   Fmaj7 C (fill*)
Along the Ivory Coast

G           Fdim/G# Am   Fmaj7 C (let ring)
Along the Ivory Coast

************************************

| /   slide up
| \   slide down
| -   -ammer-on
| p   pull-off
| ~   vibrato
| +   -armonic
| x   Mute note
| b   Bend
| pb  Pre-bend
| br  Bend release
| pbr Pre-bend release
| brb Bend release bend

************************************

            
            
Suggest correction
Creating personal tab
Creating personal tab
You can edit any tab online and save it as your Personal.

You can edit, replace or remove any tab part or add personal notes – all changes will be seen only by you.

Personal tabs can be accessed anytime from any device, even offline.
Learn more »
Give kudos to tab author, rate the tab!
1 2 3 4 5
comments
print report bad tab
guest
You may want to rate the tab now too:
select rating
Wanna post a correction for this tab? Suggest correction