Oops, an error
Loading. Please wait.

The Remedy bass

version 1
version 1

Whole song

Interactive

4,657 views 27 this week
3 commentsread comments
1 2 3 4 5
x 3
add to favorites
×
Save as Personal and add changes to this tab that will be seen only by you. Learn more ›
×
You can save this tab as Personal to edit and correct it or add notes. All changes will be seen only by you. Learn more »
launch autoscroll
font size
0
reset
guitar tuner
edit
Autoscroll
slow
fast
+/-
esc
set tempo
stop
Okay guys, I haven't been able to find a bass tab for this song, so I'm tabbing it out myself.

*DISCLAIMER: THIS IS ONLY A BASIS THAT I HOPE OTHERS CAN BUILD ON! I KNOW IT IS NOWHERE 
NEAR 100% CORRECT!*

I am hoping this will serve as a basis for others to improve on. I'm sure a lot of the 
variations were
improvised during recordings, and I know I didn't get all of them. But, its pretty darn close!

Tuning is D standard (DGCF)

Key
h   - hammer on
/   - slide up
\   - slide down
(x) - let x note ring

Intro:
F|-----------|-----------|-----------|----------------|------------|-----------|------------|-------------|
C|-----------|-----------|-----------|----------------|------------|-----------|------------|-------------|

G|-----------|-----------|-----------|----------------|------------|-----------|------------|-------------| x2
D|9999-9-9999|9999-9-9999|9999-9-9999|9999-9-12121212\|\5555-5-5555|5555-5-5550|2222-2-2222/|/7777-7-7777/|


Verse 1 (0:26):
F|------------------------------------------|-------------------------------------------|
C|---9h11---------------9h11----------------|---5h7---------------2h4---------7h9-------|

G|------------------------------------------|-------------------------------------------| x2
D|---------9-9------(9)-------9-9------(9)\-|--------5-5------(5)\-----2-2/--------7-7--|

F|-----------------------|----------------------|-----------------------|----------------------|
C|-------------5h7-7-----|----------------------|-------------5h7-7-----|----------------------|
G|-----------------------|-------------------99-|-----------------------|-------------------99-|
D|----5-5-5555------5555-|--7h9-9-9999-777777---|----5-5-5555------5555-|--7h9-9-9999-777777---|

F|-----------------------|----------------------|-----------------------|-------------------------|
C|-------------5h7-7-----|----------------------|-------------5h7-7-----|-------------------------|
G|-----------------------|-------------------99-|-----------------------|-------------------------|
D|----5-5-5555------5555-|--7h9-9-9999-777777---|----5-5-5555------5555\|-2222-2-2222/7777-7-7777\|


Chorus (1:19):
F|-----------|------------|------------|------------|-----------|------------|------------|-----------|
C|-----------|------------|------------|------------|-----------|------------|------------|---------77|
G|-----------|------------|------------|---------99\|-----------|------------|------------|-------99--|
D|5555-5-5555|5555-5-5555/|9999-9-9999\|7777-7-7----|5555-5-5555|5555-5-5555/|9999-9-9999\|7777-7-----|

F|-----------|------------|------------|-----------|-----------|------------|------------|-----------|
C|-----------|------------|------------|-----------|-----------|------------|------------|-----------|
G|-----------|------------|------------|---------99|-----------|------------|------------|-----------|
D|5555-5-5555|5555-5-5555/|9999-9-9999\|7777-7-7---|5555-5-5555|5555-5-5555/|2222-2-2222/|7777----(7)|


Verse 2 (1:46):
F|------------------------------------------|-------------------------------------------|
C|---9h11---------------9h11----------------|---5h7---------------2h4---------7h9-------|

G|------------------------------------------|-------------------------------------------| x3
D|---------9-9------(9)-------9-9------(9)\-|--------5-5------(5)\-----2-2/--------7-7--|

F|-----------------------|----------------------|-----------------------|----------------------|
C|---------------7-7-----|----------------------|---------------7-7-----|----------------------|
G|-----------------------|-------------------99-|-----------------------|-------------------99-|
D|----5-5-5555------5555-|--7h9-9-9999-777777---|----5-5-5555------5555-|--7h9-9-9999-777777---|

F|-----------------------|----------------------|-----------------------|-------------------------|
C|---------------7-7-----|----------------------|---------------7-7-----|-------------------------|
G|-----------------------|-------------------99-|-----------------------|-------------------------|
D|----5-5-5555------5555-|--7h9-9-9999-777777---|----5-5-5555------5555\|-2-2-2222-----5h7-----(7)|


Bridge (2:53):
F|-----------|------------|-----------|-----------|-----------|------------|-----------|-----------|
C|-----------|------------|-----------|---------99|-----------|------------|-----------|---------99|
G|-----------|------------|-----------|7777-7-77--|-----------|------------|-----------|7777-7-77--|
D|9999-9-9999|9999-9-9999\|2222-2-2222|-----------|9999-9-9999|9999-9-9999\|2222-2-2222|-----------|

F|-----------|-----------|-------------|-----------|-----------|-----------|-------------|-----------|
C|-----------|-----------|-------------|-----------|-----------|-----------|-------------|-----------|
G|-----------|-----------|7h9999-9-9999|-----------|-----------|-----------|7h9999-9-9999|-----------|
D|9999-9-9999|9999-9-9999|-------------|7777-7-7777|9999-9-9999|9999-9-9999|-------------|7777-7-7777|


Verse 3 (3:20):
F|--------|--------|------------------------------------------|-------------------------------------------|
C|--REST--|--REST--|---9h11----------------/11----------------|---5h7---------------2h4---------7h9-------|
G|--------|--------|------------------------------------------|-------------------------------------------|
D|--------|--------|---------9-9-9----(9)-------9-9-9----(9)\-|--------5-5-5----(5)\-----2-2---------7-7--|

F|-----------------------|----------------------|-----------------------|----------------------|
C|-------------5h7-7-----|----------------------|-------------5h7-7-----|----------------------|
G|-----------------------|-------------------99-|-----------------------|-------------------99-|
D|----5-5-5555------5555-|--7h9-9-9999-777777---|----5-5-5555------5555-|--7h9-9-9999-777777---|

F|-----------------------|----------------------|----------------------|-------------------------|
C|-------------5h7-7-----|----------------------|-------------5h7-7----|-------------------------|
G|-----------------------|-------------------99-|----------------------|-------------------------|
D|----5-5-5555------5555-|--7h9-9-9999-777777---|----5-5-5555------5555|-2222-2-2222/7777-7-7777\|


Interlude 1 (4:13):
F|-----------|----------------|------------|-----------|-----------|----------------|------------|-----------|
C|-----------|---5h7-7--------|------------|-----------|-----------|---5h7-7--------|------------|-----------|
G|-----------|----------------|------------|---------99|-----------|----------------|------------|---------99|
D|5555-5-5555|555------5-5555/|9999-9-9999\|7777-7-7---|5555-5-5555|555------5-5555/|9999-9-9999\|7777-7-7---|

F|-----------|----------------|------------|-----------|-----------|----------------|------------|-----------|
C|-----------|---5h7-7--------|------------|-----------|-----------|---5h7-7--------|------------|-----------|
G|-----------|----------------|------------|---------99|-----------|----------------|------------|-----------|
D|5555-5-5555|555------5-5555/|9999-9-9999\|7777-7-7---|5555-5-5555|555------5-5555\|2222-2-2222/|7777-7-7777|


Interlude 2 (4:39):
F|-----------|------------|------------|------------|-----------|------------|------------|-----------|
C|-----------|------------|------------|------------|-----------|------------|------------|---------77|
G|-----------|------------|------------|---------99\|-----------|------------|------------|-------99--|
D|5555-5-5555|5555-5-5555/|9999-9-9999\|7777-7-7----|5555-5-5555|5555-5-5555/|9999-9-9999\|7777-7-----|

F|-----------|------------|------------|------------|-----------|-----------|------------|-----------|
C|-----------|------------|------------|------------|-----------|-----------|------------|-----------|
G|-----------|------------|------------|---------99\|-----------|-----------|------------|-----------|
D|5555-5-5555|5555-5-5555/|9999-9-9999\|7777-7-7----|5555-5-5555|5555-5-5555|2222-2-2222/|7777777----|


Interlude 3 (5:06):
F|-----------|----------------|------------|-----------|-----------|----------------|------------|-----------|
C|-----------|---5h7-7--------|------------|-----------|-----------|---5h7-7--------|------------|-----------|
G|-----------|----------------|------------|---------99|-----------|----------------|------------|---------99|
D|5555-5-5555|555------5-5555/|9999-9-9999\|7777-7-7---|5555-5-5555|555------5-5555/|9999-9-9999\|7777-7-7---|

F|-----------|----------------|------------|-----------|-----------|----------------|------------|-----------|
C|-----------|---5h7-7--------|------------|-----------|-----------|---5h7-7--------|------------|-----------|
G|-----------|----------------|------------|---------99|-----------|----------------|------------|-----------|
D|5555-5-5555|555------5-5555/|9999-9-9999\|7777-7-7---|5555-5-5555|555------5-5555\|2222-2-2222/|7777-7-7777|


Verse 4 (5:33):
F|-----------------------|----------------------|-----------------------|----------------------|
C|-------------5h7-7-----|----------------------|-------------5h7-7-----|----------------------|
G|-----------------------|-------------------99-|-----------------------|-------------------99-|
D|----5-5-5555------5555-|--7h9-9-9999-777777---|----5-5-5555------5555-|--7h9-9-9999-777777---|

F|-----------------------|----------------------|----------------------|-------------------------|
C|-------------5h7-7-----|----------------------|-------------5h7-7----|-------------------------|
G|-----------------------|-------------------99-|----------------------|-------------------------|
D|----5-5-5555------5555-|--7h9-9-9999-777777---|----5-5-5555------5555|-2222-2-2222/7777-7-7777\|

            
            
Suggest correction
Creating personal tab
Creating personal tab
You can edit any tab online and save it as your Personal.

You can edit, replace or remove any tab part or add personal notes – all changes will be seen only by you.

Personal tabs can be accessed anytime from any device, even offline.
Learn more »
Give kudos to tab author, rate the tab!
1 2 3 4 5
comments
print report bad tab
3 comments total.
0 reply
christopher.karnes 30 Jun 04, 2016 11:23 AM

In retrospect, and with further playing, I believe the main verse riff should be as follows:

Verse 1 (0:26):
F|------------------------------------------|-------------------------------------------|
C|---9h11---------------9h11----------------|---------------------2h4---------7h9-------|
G|------------------------------------------|---5h7-------------------------------------| x2
D|---------9-9------(9)-------9-9------(9)\-|--------5-5------(5)\-----2-2/--------7-7--|

0 reply
christopher.karnes 30 Jun 04, 2016 11:26 AM

Also, the second time around, play around with with fifths and octaves:

F|------------------------------------------|-------------------------------------------|
C|---9h11---------------9h11----------------|---------------------2h4---------7h9-------|
G|------------9-----(9)----------9-----(9)--|---5h7-------------------------------------| x2
D|---------9-9------(9)-------9-9------(9)\-|--------5-5------(5)\-----2-2/--------7-7--|

0 reply
vuleslash 10 Oct 16, 2016 11:51 AM

Hi, I am watching Puscifer preforming this song live on YouTube and it seems to be that both guitar and bass are tuned in E standard (EADGBE; EADG). Despite that, your notes in this tab are correct but only need to be played two frets lower. :)

guest
You may want to rate the tab now too:
select rating
Wanna post a correction for this tab? Suggest correction