Oops, an error
Loading. Please wait.

Midnight Romeo tab

version 3
version 3

Whole song

812 views 1 this week
no commentswrite comment
1 2 3 4 5
3 more votes to show rating
add to favorites
×
Save as Personal and add changes to this tab that will be seen only by you. Learn more ›
×
You can save this tab as Personal to edit and correct it or add notes. All changes will be seen only by you. Learn more »
launch autoscroll
font size
0
reset
how to read this tab
guitar tuner
edit
Autoscroll
slow
fast
+/-
esc
set tempo
stop
it sounds like they have two guitars while playing this

Capo 4

Intro:
e|-------2--------3--------0---------2-------------|
B|-----3--------3--------0---------2---------------|
G|---4--------0--------0---------3-----------------|
D|-------------------------------------------------|
A|--2----------------------------------------------|
E|-----------3--------0---------2------------------|

Verse one:  {the tab below is played one time for each line in the lyrics}
e|-------2--------3--------0---------2-------------|
B|-----3--------3--------0---------2---------------|
G|---4--------0--------0---------3-----------------|
D|-------------------------------------------------|
A|--2----------------------------------------------|
E|-----------3--------0---------2------------------|
(lyrics)
Meet me at my door
By the end of the night
You'll be screaming for more more more of me
Tonights a big night, so lets make history.

Pre-chorus:
e|-2--------3-3------0----------------------------2------------------------|
B|-3--------0-0------0----------------------------2------------------------|
G|-4--------0-0------0-------------------------—--3----—-------------------|
D|-4--------0-0------2----------------------------4------------------------|
A|-2--------2-2------2----------------------------4------------------------|
E|----------3-3------0----------------------------2------------------------|
   Oh. Whooa     My heart is beating fast but my (hands) are moving slow

e|-2--------3-3------0-----------------------2-----------------------------|
B|-3--------0-0------0-----------------------2-----------------------------|
G|-4--------0-0------0---------—-------------3-----------------------------|
D|-4--------0-0------2-----------------------4-----------------------------|
A|-2--------2-2------2------------------ ----4-----------------------------|
E|----------3-3------0-----------------------2-----------------------------|
   Oh. Whooa        Feels so right you just can't say no

Chorus:each chord gets 4 beats the struming sounds like ////^(/= down ^= up)

Bm
 Late night gonna hit the town
     Em
Gonna take you out
                G
Gonna make you whooa
    F#
Whooaa. Midnight romeo
Bm
 Show me yours and I'll show you mine
     Em
Gonna make you sweat
                       G
Gonna feel you head to toe
    F#
You know,

I'm your midnight romeo

Bm         G        Em         F#
e|-------2--------3--------0---------2-------------|
B|-----3--------3--------0---------2---------------|
G|---4--------0--------0---------3-----------------|
D|-------------------------------------------------|
A|--2----------------------------------------------|
E|-----------3--------0---------2------------------|

Verse 2: {the tab below is played one time for each line in the lyrics}
   Bm         G        Em         F#
e|-------2--------3--------0---------2-------------|
B|-----3--------3--------0---------2---------------|
G|---4--------0--------0---------3-----------------|
D|-------------------------------------------------|
A|--2----------------------------------------------|
E|-----------3--------0---------2------------------|
(lyrics)
I'll be your Dr. Jekel, and you be my Mr. Hyde
The best of both worlds when you get inside my place place place with me
You be the lock, yeah I'll be the key
Tonights about to win
Sell it baby or we wont be friends
Tonight your dinner is free
Whats in it for me?

Pre-Chorus:
 Bm       G        Em                           F#
   V        V V      V                            V
e|-2--------3-3------0----------------------------2------------------------|
B|-3--------0-0------0----------------------------2------------------------|
G|-4--------0-0------0-------------------------—--3----—-------------------|
D|-4--------0-0------2----------------------------4------------------------|
A|-2--------2-2------2----------------------------4------------------------|
E|----------3-3------0----------------------------2------------------------|
   Oh. Whooa     My heart is beating fast but my (hands) are moving slow

   Bm       G        Em                      F#
   V        V V      V                       V
e|-2--------3-3------0-----------------------2-----------------------------|
B|-3--------0-0------0-----------------------2-----------------------------|
G|-4--------0-0------0---------—-------------3-----------------------------|
D|-4--------0-0------2-----------------------4-----------------------------|
A|-2--------2-2------2------------------ ----4-----------------------------|
E|----------3-3------0-----------------------2-----------------------------|
   Oh. Whooa        Feels so right you just can't say no

Chorus: each chord gets 4 beats the struming sounds like ////^(/= down ^= up)

Bm
 Late night gonna hit the town
     Em
Gonna take you out
                G
Gonna make you whooa
    F#
Whooaa. Midnight romeo
Bm
 Show me yours and I'll show you mine
     Em
Gonna make you sweat
                       G
Gonna feel you head to toe
    F#
You know,

I'm your midnight romeo

Bridge: strum each chord 4 times
Bm                Em                   Bm
 Now its time I'll turn the lights down low

Show me yours and I'll show you mine
     Em
Gonna make you sweat

Gonna be your Romeo
Bm               Em               G        F#
 Take my hand its time to lose control  Whooooaa

I'm your Midnight Romeo.


Bm (let it ring)
 Late night gonna hit the town
     Em (let it ring)
Gonna take you out
                G (let it ring)
Gonna make you whooa
   F#(build it back up. 8 strums from soft and on each strum get louder.)
Whooooaa


Chorus: each chord gets 4 beats the struming sounds like ////^(/= down ^= up)

Bm(hold)
 Late night gonna hit the town
     Em(hold)
Gonna take you out
                G(hold)
Gonna make you whooa
    F#(hold)
Whooaa. Midnight romeo
Bm(back to normal strumming)
 Show me yours and I'll show you mine
     Em
Gonna make you sweat
                       G
Gonna feel you head to toe
    F#
You know,

I'm your midnight romeo

Bm
 Late night gonna hit the town
     Em
Gonna take you out
                G
Gonna make you whooa
    F#
Whooaa. Midnight romeo

Bm
 Show me yours and I'll show you mine
     Em
Gonna make you sweat
                       G
Gonna feel you head to toe
    F#
You know,

I'm your midnight romeo

Bm
 Late night gonna hit the town
     Em
Gonna take you out
                G
Gonna make you whooa
    F#
Whooaa. Midnight romeo

Bm
 Show me yours and I'll show you mine
     Em
Gonna make you sweat
                       G
Gonna feel you head to toe
    F#(hold)
You know,

I'm your midnight romeo


Notes:
- it sounds like there is two guitars and the second guitar plays all the chords from
tab part after the first verse with one strum each and the first guitar continues playing
intro over and over again until the bridge and then both guitars just fallow what i have typed.
- this is my first tab so if you have any comments or any thing send me an email 
to maxswann12@yahoo.com.
- enjoy

            
            
Suggest correction
Creating personal tab
Creating personal tab
You can edit any tab online and save it as your Personal.

You can edit, replace or remove any tab part or add personal notes – all changes will be seen only by you.

Personal tabs can be accessed anytime from any device, even offline.
Learn more »
Give kudos to tab author, rate the tab!
1 2 3 4 5
comments
print report bad tab
guest
You may want to rate the tab now too:
select rating
Wanna post a correction for this tab? Suggest correction