Oops, an error
Loading. Please wait.

Eyelids tab

version 1
version 1

Whole song

Interactive

by PVRIS
6,752 views 27 this week
1 commentread comment
1 2 3 4 5
x 7
add to favorites
×
Save as Personal and add changes to this tab that will be seen only by you. Learn more ›
×
You can save this tab as Personal to edit and correct it or add notes. All changes will be seen only by you. Learn more »
launch autoscroll
font size
0
reset
how to read this tab
guitar tuner
edit
Autoscroll
slow
fast
+/-
esc
set tempo
stop
Author
PVRIS - EYELIDS (Empty Room Session)
TUNING: Standard E 
(I use lots of delay and reverb)
For exact timing listen: https://www.youtube.com/watch?v=TFYDvBd2Gpw
Sorry for mistakes, especially in solo parts, this is my first tab. Try to figure it out yourself...
Please let me know if you have any corrections. Thank you!

[Verse 10x]
E|---------------------------------------------------------------------------------------------------|
B|---------------------------------------------------------------------------------------------------|
G|---------------------------------------------------------------------------------------------------|
D|-9-9-9-9-12-12-12-12-5-5-5-5-5-5-5-5---------------------------------------------------------------|
A|-7-7-7-7-10-10-10-10-3-3-3-3-3-3-3-3---------------------------------------------------------------|
E|---------------------------------------------------------------------------------------------------|
I'll face my fear of the evening...

[Verse solo](keyboard) 2x
E|-12------------------5-----------------------------------------------------------------------------|
B|---------12--15------------------------------------------------------------------------------------|
G|---------------------------------------------------------------------------------------------------|
D|---------------------------------------------------------------------------------------------------|
A|---------------------------------------------------------------------------------------------------|
E|---------------------------------------------------------------------------------------------------|

[Pre chorus]
E|---------------------------------------------------------------------------------------------------|
B|---------------------------------------------------------------------------------------------------|
G|---------------------------------------------------------------------------------------------------|
D|-7------------------------------5------------------------------------------------------------------|
A|-5------------------------------3------------------------------------------------------------------|
E|---------------------------------------------------------------------------------------------------|

[Chorus 2x]
E|---------------------------------------------------------------------------------------------------|
B|---------------------------------------------------------------------------------------------------|
G|---------------------------------------------------------------------------------------------------|
D|-9---------------------------12-5----------------7-------------------------9-----------------------|
A|-7---------------------------10-3----------------5-------------------------7--et the end-----------|
E|---------------------------------------------------------------------------------------------------|
Our eyes fighting...          say good night      ooh

[Chorus solo 2x]
E|---------------------------------------------------------------------------------------------------|
B|-12--------------------------15-8---------------10-------------------------------------------------|
G|-9---------------------------12-5---------------7--------------------------------------------------|
D|---------------------------------------------------------------------------------------------------|
A|----strum------------------------------------------------------------------------------------------|
E|---------------------------------------------------------------------------------------------------|

[Verse 6x]
E|---------------------------------------------------------------------------------------------------|
B|---------------------------------------------------------------------------------------------------|
G|---------------------------------------------------------------------------------------------------|
D|-9-9-9-9-12-12-12-12-5-5-5-5-5-5-5-5---------------------------------------------------------------|
A|-7-7-7-7-10-10-10-10-3-3-3-3-3-3-3-3---------------------------------------------------------------|
E|---------------------------------------------------------------------------------------------------|
I'll face my fear of the cold nights...

[Verse solo](keyboard) 2x
E|-12------------------5-----------------------------------------------------------------------------|
B|---------12--15------------------------------------------------------------------------------------|
G|---------------------------------------------------------------------------------------------------|
D|---------------------------------------------------------------------------------------------------|
A|---------------------------------------------------------------------------------------------------|
E|---------------------------------------------------------------------------------------------------|

[Chorus 2x]
E|---------------------------------------------------------------------------------------------------|
B|---------------------------------------------------------------------------------------------------|
G|---------------------------------------------------------------------------------------------------|
D|-9-------------------------12-5----------------------7---------------------------------------------|
A|-7-------------------------10-3----------------------5---------------------------------------------|
E|---------------------------------------------------------------------------------------------------|
Our eyes fighting...      say good night               ooh

[Chorus solo 2x]
E|---------------------------------------------------------------------------------------------------|
B|-12--------------------------15-8---------------10-------------------------------------------------|
G|-9---------------------------12-5---------------7--------------------------------------------------|
D|---------------------------------------------------------------------------------------------------|
A|----strum------------------------------------------------------------------------------------------|
E|---------------------------------------------------------------------------------------------------|

1x
E|---------------------------------------------------------------------------------------------------|
B|---------------------------------------------------------------------------------------------------|
G|--------------------------------------------------------9------------------------------------------|
D|-9------------------------------5-----------------------7---------------------5--------------------|
A|-7------------------------------3---------------------------------------------3--------------------|
E|---------------------------------------------------------------------------------------------------|
good night                      good night              good night              ooh

[Solo]
E|---------------------------------------------------------------------------------------------------|
B|-12---------------------15--13--12-------------15--13--12---------------------12------12---10------|
G|-9----------------------12-------9-----------------------------------------------------------------|
D|---------------------------------------------------------------------------------------------------|
A|---------------------------------------------------------------------------------------------------|
E|---------------------------------------------------------------------------------------------------|

[Bridge]
E|---------------------------------------------------------------------------------------------------|
B|---------------------------------------------------------------------------------------------------|
G|--------------------------------------------------------9------------------------------------------|
D|-9------------------------------5-----------------------7---------------------5--------------------|
A|-7------------------------------3---------------------------------------------3--------------------|
E|---------------------------------------------------------------------------------------------------|
These eyes...             another night...          by my side...               yeah, that's...

[Bridge solo]
E|---------------------------------------------------------------------------------------------------|
B|-12------------------------------------------------------------------------------------------------|
G|-9---strum-----------------------------------------------------------------------------------------|
D|---------------------------------------------------------------------------------------------------|
A|---------------------------------------------------------------------------------------------------|
E|---------------------------------------------------------------------------------------------------|

[Chorus 2x]
E|---------------------------------------------------------------------------------------------------|
B|---------------------------------------------------------------------------------------------------|
G|---------------------------------------------------------------------------------------------------|
D|-9-------------------------12-5----------------------7---------------------------------------------|
A|-7-------------------------10-3----------------------5---------------------------------------------|
E|---------------------------------------------------------------------------------------------------|
Our eyes fighting...            say                    good night

[End]
2x
E|---------------------------------------------------------------------------------------------------|
B|---------------------------------------------------------------------------------------------------|
G|---------------------------------------------------------------------------------------------------|
D|-9-------------------------12-5----------------------7---------------------------------------------|
A|-7-------------------------10-3----------------------5---------------------------------------------|
E|---------------------------------------------------------------------------------------------------|

1x
E|---------------------------------------------------------------------------------------------------|
B|---------------------------------------------------------------------------------------------------|
G|---------------------------------------------------------------------------------------------------|
D|-9-------------------------------------------------------------------------------------------------|
A|-7---let it ring-----------------------------------------------------------------------------------|
E|---------------------------------------------------------------------------------------------------|

            
            
Suggest correction
Creating personal tab
Creating personal tab
You can edit any tab online and save it as your Personal.

You can edit, replace or remove any tab part or add personal notes – all changes will be seen only by you.

Personal tabs can be accessed anytime from any device, even offline.
Learn more »
comments
print report bad tab
1 comment total.
0 reply
imyourcoolmom 10 Jul 16, 2017 05:33 PM

If you want the tab to the intro here it is, I tabbed it myself by ear.
E|----10/12-14-----14-12-------12------12-------------(x2)
B|--12--------15-12------15--12--12--12--12-----------
G|-9-----------------------12------12-----------------
D|----------------------------------------------------
A|----------------------------------------------------
E|----------------------------------------------------

guest
You may want to rate the tab now too:
select rating
Wanna post a correction for this tab? Suggest correction