Oops, an error
Loading. Please wait.

Only Love Acoustic tab

version 2
version 2

Whole song

by PVRIS
21,143 views 60 this week
3 commentsread comments
1 2 3 4 5
x 14
add to favorites
×
Save as Personal and add changes to this tab that will be seen only by you. Learn more ›
×
You can save this tab as Personal to edit and correct it or add notes. All changes will be seen only by you. Learn more »
launch autoscroll
font size
0
reset
how to read this tab
guitar tuner
edit
Autoscroll
slow
fast
+/-
esc
set tempo
stop
Author
-------------------------------------------------------------------------------
                             Only Love (Acoustic) - Pvris
-------------------------------------------------------------------------------

Tuning:Standard 

[Intro]

e|-----------------------------------------------------------------------------------| (x2)
B|----16--------16--------14--------14--------11--------11--------11--------11-------|
G|--------15--------15--------15--------15--------11--------11--------11--------11---|
D|-----------------------------------------------------------------------------------|
A|-----------------------------------------------------------------------------------|
E|-----------------------------------------------------------------------------------|

[Verse 1]

e|-------------------------------------| (x4)
B|-4--------6--------7------------11---|
G|-------------------------------------|
D|-------------------------------------|
A|-2--------4--------6-------------9---|
E|-------------------------------------|

e|-------------------------------------|  (x2)
B|-4--------6--------7-----------------|
G|-------------------------------------|
D|-------------------------------------|
A|-2--------4--------6-----------------|
E|-------------------------------------|

[Chorus]

e|-----------------------------------------------------------------------------------| (x4)
B|----16--------16--------14--------14--------11--------11--------11--------11-------|
G|--------15--------15--------15--------15--------11--------11--------11--------11---|
D|-----------------------------------------------------------------------------------|
A|-----------------------------------------------------------------------------------|
E|-----------------------------------------------------------------------------------|

[Verse 2]

e|-------------------------------------| (x4)
B|-4--------6--------7------------11---|
G|-------------------------------------|
D|-------------------------------------|
A|-2--------4--------6-------------9---|
E|-------------------------------------|

e|-------------------------------------|  (x2)
B|-4--------6--------7-----------------|
G|-------------------------------------|
D|-------------------------------------|
A|-2--------4--------6-----------------|
E|-------------------------------------|

[Chorus]

e|-----------------------------------------------------------------------------------| (x4)
B|----16--------16--------14--------14--------11--------11--------11--------11-------|
G|--------15--------15--------15--------15--------11--------11--------11--------11---|
D|-----------------------------------------------------------------------------------|
A|-----------------------------------------------------------------------------------|
E|-----------------------------------------------------------------------------------|

[Interlude]

e|---------------------------------------------------------------------|
B|---------------------------------------------------------------------|
G|-----------15--------------13----------------------------------------|
D|---13--16----------11--15------------------16------------------(15)--|
A|-----------------------------------13--18----------------------------|
E|---------------------------------------------------------------------|

e|---------------------------------------------------------------------|
B|---------------------------------------------------------------------| (Note values change on 2nd time)
G|-----------15--------------13----------------------------------------|
D|---13--16----------11--15------------------16------------------------|
A|-----------------------------------13--18----------------------------|
E|---------------------------------------------------------------------|

(Interlude riff repeats under Chorus riff)

Outro riff

e|--14------14------14------18------14------14------13------13---------------| 
B|------16------16------16------16------16------16------14------14-----------|
G|---------------------------------------------------------------------------|
D|---------------------------------------------------------------------------|
A|---------------------------------------------------------------------------|
E|---------------------------------------------------------------------------|

(Repeat until the end)



************************************

| (n)  Ghost note

************************************

            
            
Suggest correction
Creating personal tab
Creating personal tab
You can edit any tab online and save it as your Personal.

You can edit, replace or remove any tab part or add personal notes – all changes will be seen only by you.

Personal tabs can be accessed anytime from any device, even offline.
Learn more »
comments
print report bad tab
3 comments total.
0 reply
Notstarboard11 78 Nov 14, 2015 08:32 PM

e|-------------------------------------| (x4)
B|-4--------6--------7------------11---|
G|-------------------------------------|
D|-------------------------------------|
A|-2--------4--------6-------------9---|
E|-------------------------------------|

+1 reply
kiralatham 44 Aug 15, 2017 06:51 AM, edited on August 16 2017, 02:31 am

This tab is great, but for people with shorter guitars or people who prefer tabs like these, this is just an easier way to play I worked out x[Intro/Chorus]
e|----11-------11-------9--------9--------6-------6-------6-------6-------| B|--------11-------11-------11-------11-------7-------7-------7-------7---|G|------------------------------------------------------------------------|D|------------------------------------------------------------------------|A|------------------------------------------------------------------------|E|------------------------------------------------------------------------|[Interlude]e|-------------6--------------4----------------2-------------------------|B|---------7--------------6---------------4-------------------------(6)--|G|-----8--------------6--------------3-----------------------------------|D|-----------------------------------------------------------------------|A|-----------------------------------------------------------------------|E|-----------------------------------------------------------------------|

0 reply
MusicDisguise 160 Aug 23, 2017 07:34 PM

it sounds really good, thanks for uploading it

guest
You may want to rate the tab now too:
select rating
Wanna post a correction for this tab? Suggest correction