Oops, an error
Loading. Please wait.

White Noise album bass

version 1
version 1

Album

Whole song

by PVRIS
1,171 views 6 this week
no commentswrite comment
1 2 3 4 5
x 3
add to favorites
×
Save as Personal and add changes to this tab that will be seen only by you. Learn more ›
×
You can save this tab as Personal to edit and correct it or add notes. All changes will be seen only by you. Learn more »
launch autoscroll
font size
0
reset
guitar tuner
edit
Autoscroll
slow
fast
+/-
esc
set tempo
stop
Pvris - White Noise

Tracklist:

1. Smoke [Tabbed by cindelguerrero]
2. St. Patrick [Tabbed by JackMills]
3. My House [Tabbed by JackMills]
4. Holy [Tabbed by cindelguerrero]
5. White Noise [Tabbed by comewithyourarm]
6, Fire [Tabbed by weird_kid]
7. Eyelids [Tabbed by cesare_moon]
8. Mirrors [Tabbed by cesare_moon]
9. Ghosts [Tabbed by cesare_moon]
10. Let Them In [Tabbed by cesare_moon]

------------------------------------------

1. Smoke

Tuning: Drop C


[Intro]

F|---------------------------------------------------------------------------|
C|---------------------------------------------------------------------------| x2
G|-8-8-8~--6-6~-----------------1-1-1~---------------------------------------|
C|--------------------------------------3-3~---------------------------------|


[First Verse]

F|---------------------------------------------------------------------------|
C|---------------------------------------------------------------------------|
G|-8-11-8-----6-8-6-----3-6-3---1-4-1----------------------------------------|
C|---------------------------------------3-6-3----3-1-1~---------------------|
                                                                                  
F|---------------------------------------------------------------------------|
C|---------------------------------------------------------------------------|
G|-8-11-8-----6-8-6-----3-6-3---1-4-1----------------------------------------|
C|---------------------------------------3-6-3----3-1~-----------------------|


[Chorus]

F|---------------------------------------------------------------------------|
C|---------------------------------------------------------------------------| x2
G|-8-8-8~--6-6~-----------------1-1-1~---------------------------------------|
C|--------------------------------------3-3~---------------------------------|


[Second Verse]

F|---------------------------------------------------------------------------|
C|---------------------------------------------------------------------------|
G|-8-11-8-----6-8-6-----3-6-3---1-4-1----------------------------------------|
C|---------------------------------------3-6-3----3-1-1~---------------------|

F|---------------------------------------------------------------------------|
C|---------------------------------------------------------------------------|
G|-8-11-8-----6-8-6-----3-6-3----1-4-1---------------------------------------|
C|---------------------------------------3-6-3----3-1~-----------------------|


[Chorus]

F|---------------------------------------------------------------------------|
C|---------------------------------------------------------------------------| x4
G|-8-8-8~--6-6~-----------------1-1-1~---------------------------------------|
C|--------------------------------------3-3~---------------------------------|


[Bridge]

(starts just before Lynn says "You're just a ghost of blissful feelings...")

F|---------------------------------------------------------------------------|
C|---------------------------------------------------------------------------|
G|---------------------------------------------------------------------------|
C|-6-6-6-6-6-6-6-6-6-6-6-6-6-6-6-6-8-8-8-8-8-8-8-8-8-8-8-8-8-8-8-8-----------|

F|---------------------------------------------------------------------------|
C|---------------------------------------------------------------------------|
G|---------------------------------------------------------------------------|
C|-3-3-3-3-3-3-3-3-3-3-3-3-3-3-3-3-3-3-3-3-3-3-3-3-3-3-3-3-3-3-3-3-----------|

F|---------------------------------------------------------------------------|
C|---------------------------------------------------------------------------| 
G|---------------------------------------------------------------------------|
C|-6-6-6-6-6-6-6-6-6-6-6-6-6-6-6-6-8-8-8-8-8-8-8-8-8-8-8-8-8-8-8-8-----------|

F|---------------------------------------------------------------------------|
C|---------------------------------------------------------------------------|
G|---------------------------------------------------------------------------|
C|-3-3-3-3-3-3-3-3-3-3-3-3-3-3-3-3-3-3-3-3-3-3-3-3-3-3-3-3-3-3-3-3-----------|

F|---------------------------------------------------------------------------|
C|---------------------------------------------------------------------------| 
G|---------------------------------------------------------------------------|
C|-6-6-6-6-6-6-6-6-6-6-6-6-6-6-6-6-8-8-8-8-8-8-8-8-8-8-8-8-8-8-8-8-----------|

F|---------------------------------------------------------------------------|
C|---------------------------------------------------------------------------| 
G|---------------------------------------------------------------------------|
C|-3~------------------------------------------------------------------------|
   (hold it)


[Last Chorus/Outro] 

(starts when she says "Oh you're killing me right now...")

F|---------------------------------------------------------------------------|
C|---------------------------------------------------------------------------| 
G|-8-8-8~--6-6~-----------------1-1-1~---------------------------------------|
C|--------------------------------------3-3~---------------------------------|

F|---------------------------------------------------------------------------|
C|---------------------------------------------------------------------------| 
G|-8-8-8~--6-6~-----------------1-1-1~---------------------------------------|
C|---------------------------------------------------------------------------|

------------------------------------------

2. St. Patrick

Tuning: Standard


[Intro]
 
(0:14)

G|-------------------------------------------------------------------|
D|-------------------------------------------------------------------|
A|-------------------------------------------------------------------|
E|--9-9-9-9-9-9-9-9-1-1-1-1-1-1-1-1-4-4-4-4-4-4-4-4-1-1-1-1-1-1-1-1--|x2
    1 + 2 + 3 + 4 + 1 + 2 + 3 + 4 + 1 + 2 + 3 + 4 + 1 + 2 + 3 + 4 +


[Verse]

(0:30)

G|-------------------------------------------------------------------|
D|-------------------------------------------------------------------|
A|-------------------------------------------------------------------|
E|--9--9--9-----9-\-1--1--1-----1-/-4--4--4-----4-\-1--1--1-----1-/--|x2
    Triplet 3 + 4 + Triplet 3 + 4 + 1 + 2 + 3 + 4 + Triplet 3 + 4 +

G|-------------------------------------------------------------------|
D|-------------------------------------------------------------------|
A|-------------------------------------------------------------------|
E|--9-9-9-9-9-9-9-9-1-1-1-1-1-1-1-1-4-4-4-4-4-4-4-4-1-1-1-1-1-1-1-1--|x2
    1 + 2 + 3 + 4 + 1 + 2 + 3 + 4 + 1 + 2 + 3 + 4 + 1 + 2 + 3 + 4 +


[Rest]

(0:59)


[Chorus]

(1:14)

G|-------------------------------------------------------------------|
D|-------------------------------------------------------------------|
A|-------------------------------------------------------------------|
E|--9-9-9-9-9-9-9-9-1-1-1-1-1-1-1-1-4-4-4-4-4-4-4-4-1-1-1-1-1-1-1-1--|x2
    1 + 2 + 3 + 4 + 1 + 2 + 3 + 4 + 1 + 2 + 3 + 4 + 1 + 2 + 3 + 4 +


[Verse]

(1:29)

G|-------------------------------------------------------------------|
D|-------------------------------------------------------------------|
A|-------------------------------------------------------------------|
E|--9--9--9-----9-\-1--1--1-----1-/-4--4--4-----4-\-1--1--1-----1-/--|x2
    Triplet 3 + 4 + Triplet 3 + 4 + 1 + 2 + 3 + 4 + Triplet 3 + 4 +

G|-------------------------------------------------------------------|
D|-------------------------------------------------------------------|
A|-------------------------------------------------------------------|
E|--9-9-9-9-9-9-9-9-1-1-1-1-1-1-1-1-4-4-4-4-4-4-4-4-1-1-1-1-1-1-1-1--|x2
    1 + 2 + 3 + 4 + 1 + 2 + 3 + 4 + 1 + 2 + 3 + 4 + 1 + 2 + 3 + 4 +
  

[Rest]

(1:59)


[Chorus]

(2:14)

G|-------------------------------------------------------------------|
D|-------------------------------------------------------------------|
A|-------------------------------------------------------------------|
E|--9-9-9-9-9-9-9-9-1-1-1-1-1-1-1-1-4-4-4-4-4-4-4-4-1-1-1-1-1-1-1-1--|x4
    1 + 2 + 3 + 4 + 1 + 2 + 3 + 4 + 1 + 2 + 3 + 4 + 1 + 2 + 3 + 4 +


[Rest]

(2:43 )


[Chorus]

 (3:13)

G|-------------------------------------------------------------------|
D|-------------------------------------------------------------------|
A|-------------------------------------------------------------------|
E|--9-9-9-9-9-9-9-9-1-1-1-1-1-1-1-1-4-4-4-4-4-4-4-4-1-1-1-1-1-1-1-1--|x6
    1 + 2 + 3 + 4 + 1 + 2 + 3 + 4 + 1 + 2 + 3 + 4 + 1 + 2 + 3 + 4 +


[Optional Outro] 

(Follows Guitar) 

(4:00)

G|-10--------------13----------------------------------------------|
D|---------------------------------15------------------------------|
A|-----------------------------------------------------------------|
E|-----------------------------------------------------------------|
   1 + 2 + 3 + 4 + 1 + 2 + 3 + 4 + 1 + 2 + 3 + 4 + 1 + 2 + 3 + 4 +

G|-----------------13----------------------------------------------|
D|-11--------------------------------------------------------------|
A|-----------------------------------------------------------------|
E|-----------------------------------------------------------------|
   1 + 2 + 3 + 4 + 1 + 2 + 3 + 4 + 1 + 2 + 3 + 4 + 1 + 2 + 3 + 4 +

------------------------------------------

3. My House

Tuning: Drop D


[Verse]

(0:11)

G|-------------------------------------------------------------------|
D|-------------------------------------------------------------------|
A|-------------------------------------------------3-----------------|
D|--2-------5-------0---------------2-------5------------------------|x4
    1 + 2 + 3 + 4 + 1 + 2 + 3 + 4 + 1 + 2 + 3 + 4 + 1 + 2 + 3 + 4 +


[Chorus]

(0:41)

G|-----------------------------------------------------------------|
D|-----------------------------------------------------------------|
A|-3-3-3-3-3-3-3-3-0-0-0-0-0-0-0-0---------------------------------|
D|---------------------------------2-2-2-2-2-2-2-2-0-0-0-0-0-0-0-0-|
   1 + 2 + 3 + 4 + 1 + 2 + 3 + 4 + 1 + 2 + 3 + 4 + 1 + 2 + 3 + 4 +

G|-----------------------------------------------------------------|
D|-----------------------------------------------------------------|
A|-3-3-3-3-3-3-3-3-0-0-0-0-0-0-0-0---------------------------------|
D|---------------------------------2-2-2-2-2-2-2-2-5-5-5-5-5-5-5-5-|
   1 + 2 + 3 + 4 + 1 + 2 + 3 + 4 + 1 + 2 + 3 + 4 + 1 + 2 + 3 + 4 +

G|-----------------------------------------------------------------|
D|-----------------------------------------------------------------|
A|-3-3-3-3-3-3-3-3-0-0-0-0-0-0-0-0---------------------------------|
D|---------------------------------2-2-2-2-2-2-2-2-0-0-0-0-0-0-0-0-|
   1 + 2 + 3 + 4 + 1 + 2 + 3 + 4 + 1 + 2 + 3 + 4 + 1 + 2 + 3 + 4 +

G|-----------------------------------------------------------------|
D|-----------------------------------------------------------------|
A|-3-3-3-3-3-3-3-3-0-0-0-0-0-0-0-0---------------------------------|
D|---------------------------------2-2-2-2-2-2-2-2-2-2-2-2-2-2-2-2-|
   1 + 2 + 3 + 4 + 1 + 2 + 3 + 4 + 1 + 2 + 3 + 4 + 1 + 2 + 3 + 4 +


[Rest]


[Verse] 

(1:18)

G|-----------------------------------------------------------------|
D|-----------------------------------------------------------------|
A|-----------------------------------------------------------------|
D|-2-------5-------0---------------2-------5-------r---------------|x1
   1 + 2 + 3 + 4 + 1 + 2 + 3 + 4 + 1 + 2 + 3 + 4 + 1 + 2 + 3 + 4 +

G|-------------------------------------------------------------------|
D|-------------------------------------------------------------------|
A|-------------------------------------------------3-----------------|
D|--2-------5-------0---------------2-------5------------------------|x3
    1 + 2 + 3 + 4 + 1 + 2 + 3 + 4 + 1 + 2 + 3 + 4 + 1 + 2 + 3 + 4 +


[Chorus] 

(1:48)

G|-----------------------------------------------------------------|
D|-----------------------------------------------------------------|
A|-3-3-3-3-3-3-3-3-0-0-0-0-0-0-0-0---------------------------------|
D|---------------------------------2-2-2-2-2-2-2-2-0-0-0-0-0-0-0-0-|
   1 + 2 + 3 + 4 + 1 + 2 + 3 + 4 + 1 + 2 + 3 + 4 + 1 + 2 + 3 + 4 +

G|-----------------------------------------------------------------|
D|-----------------------------------------------------------------|
A|-3-3-3-3-3-3-3-3-0-0-0-0-0-0-0-0---------------------------------|
D|---------------------------------2-2-2-2-2-2-2-2-5-5-5-5-5-5-5-5-|
   1 + 2 + 3 + 4 + 1 + 2 + 3 + 4 + 1 + 2 + 3 + 4 + 1 + 2 + 3 + 4 +

G|-----------------------------------------------------------------|
D|-----------------------------------------------------------------|
A|-3-3-3-3-3-3-3-3-0-0-0-0-0-0-0-0---------------------------------|
D|---------------------------------2-2-2-2-2-2-2-2-0-0-0-0-0-0-0-0-|
   1 + 2 + 3 + 4 + 1 + 2 + 3 + 4 + 1 + 2 + 3 + 4 + 1 + 2 + 3 + 4 +

G|-----------------------------------------------------------------|
D|-----------------------------------------------------------------|
A|-3-3-3-3-3-3-3-3-0-0-0-0-0-0-0-0---------------------------------|
D|---------------------------------2-2-2-2-2-2-2-2-2-2-2-2-2-2-2-2-|
   1 + 2 + 3 + 4 + 1 + 2 + 3 + 4 + 1 + 2 + 3 + 4 + 1 + 2 + 3 + 4 +


[Rest]


[Bridge] 

(2:25)

G|-----------------------------------------------------------------|
D|-----------------------------------------------------------------|
A|-----------------------------------------------------------------|
D|-2---------------r-----------------------------------------------|x1
   1 + 2 + 3 + 4 + 1 + 2 + 3 + 4 + 1 + 2 + 3 + 4 + 1 + 2 + 3 + 4 +

G|-------------------------------------------------------------------|
D|-------------------------------------------------------------------|
A|-------------------------------------------------------------------|
D|--2-------2---r----------------------------------------------------|x4
    1 + 2 + 3 + 4 + 1 + 2 + 3 + 4 + 1 + 2 + 3 + 4 + 1 + 2 + 3 + 4 +

  3:02
G|-------------------------------------------------------------------|
D|-------------------------------------------------------------------|
A|--------------------------------------------------3----------------|
D|--2-------5-------0---------------2-------5------------------------|x2
    1 + 2 + 3 + 4 + 1 + 2 + 3 + 4 + 1 + 2 + 3 + 4 + 1 + 2 + 3 + 4 +


[Chorus] 

(Quiet)

G|-----------------------------------------------------------------|
D|-----------------------------------------------------------------|
A|-3-3-3-3-3-3-3-3-0-0-0-0-0-0-0-0---------------------------------|
D|---------------------------------2-2-2-2-2-2-2-2-0-0-0-0-0-0-0-0-|
   1 + 2 + 3 + 4 + 1 + 2 + 3 + 4 + 1 + 2 + 3 + 4 + 1 + 2 + 3 + 4 +

G|-----------------------------------------------------------------|
D|-----------------------------------------------------------------|
A|-3-3-3-3-3-3-3-3-0-0-0-0-0-0-0-0---------------------------------|
D|---------------------------------2-2-2-2-2-2-2-2-5-5-5-5-5-/-/-\-|
   1 + 2 + 3 + 4 + 1 + 2 + 3 + 4 + 1 + 2 + 3 + 4 + 1 + 2 + 3 + 4 +


[Chorus] 

G|------------------------------------------------------------------|
D|------------------------------------------------------------------|
A|--3-3-3-3-3-3-3-3-0-0-0-0-0-0-0-0---------------------------------|
D|----------------------------------2-2-2-2-2-2-2-2-0-0-0-0-0-0-0-0-|
    1 + 2 + 3 + 4 + 1 + 2 + 3 + 4 + 1 + 2 + 3 + 4 + 1 + 2 + 3 + 4 +

G|------------------------------------------------------------------|
D|------------------------------------------------------------------|
A|-3-3-3-3-3-3-3-3-0-0-0-0-0-0-0-0----------------------------------|
D|---------------------------------2-2-2-2-2-2-2-2-2-2-2-2-2-2-2-2--|
   1 + 2 + 3 + 4 + 1 + 2 + 3 + 4 + 1 + 2 + 3 + 4 + 1 + 2 + 3 + 4 +

G|------------------------------------------------------------------|
D|------------------------------------------------------------------|
A|--3-3-3-3-3-3-3-3-0-0-0-0-0-0-0-0---------------------------------|
D|----------------------------------2-2-2-2-2-2-2-2-0-0-0-0-0-0-0-0-|
    1 + 2 + 3 + 4 + 1 + 2 + 3 + 4 + 1 + 2 + 3 + 4 + 1 + 2 + 3 + 4 +

G|------------------------------------------------------------------|
D|------------------------------------------------------------------|
A|-3-3-3-3-3-3-3-3-0-0-0-0-0-0-0-0----------------------------------|
D|---------------------------------2-2-2-2-2-2-2-2-2-2-2-2-2-2-2-2--|
   1 + 2 + 3 + 4 + 1 + 2 + 3 + 4 + 1 + 2 + 3 + 4 + 1 + 2 + 3 + 4 +
------------------------------------------


4. Holy

Tuning: Standard


[Intro]

G|---------------------------------------------------------------------------|
D|---------------------------------------------------------------------------|
A|---------------------------------------------------------------------------|
E|-12-12-12-12-12-12-12-12-12-12-12-12-12-14-14\-4-4-4-4-4-4-4-4-4-4-4-4-4-7-|
                                                                               x2
G|---------------------------------------------------------------------------|
D|---------------------------------------------------------------------------|
A|---------------------------------------------------------------------------|
E|-7/------------------------------------------------------------------------|


[Verse 1]

G|---------------------------------------------------------------------------|
D|---------------------------------------------------------------------------|
A|---------------------------------------------------------------------------|
E|-12-12-12-12-12-12-12-12-12-12-12-12-12-14-14\-4-4-4-4-4-4-4-4-4-4-4-4-4-7-|
                                                                               x6
G|---------------------------------------------------------------------------|
D|---------------------------------------------------------------------------|
A|---------------------------------------------------------------------------|
E|-7/------------------------------------------------------------------------|


[Pre-Chorus]

G|---------------------------------------------------------------------------|
D|---------------------------------------------------------------------------|
A|---------------------------------------------------------------------------|
E|-12-12-12-12-12-12-12-12-12-12-12-12-12-14-14\-4-4-4-4-4-4-4-4-4-4-4-4-4-7-|
                                                                               
G|---------------------------------------------------------------------------|
D|---------------------------------------------------------------------------|
A|---------------------------------------------------------------------------|
E|-7/-12-12-12-12-12-12-12-12-12-12-12-12-12-14-14\-4-4-4-4-4-4-4-4-4-4-4-4--|

G|---------------------------------------------------------------------------|
D|---------------------------------------------------------------------------|
A|---------------------------------------------------------------------------|
E|-4-4-4-4-------------------------------------------------------------------|


[Chorus]

G|---------------------------------------------------------------------------|
D|---------------------------------------------------------------------------| x4
A|---------------------------------------------------------------------------|
E|-0-----------------------0-2-2--4-----------------------4-7-7--------------|


[Verse 2]

G|---------------------------------------------------------------------------|
D|---------------------------------------------------------------------------|
A|---------------------------------------------------------------------------|
E|-12-12-12-12-12-12-12-12-12-12-12-12-12-14-14\-4-4-4-4-4-4-4-4-4-4-4-4-4-7-|
                                                                               x4
G|---------------------------------------------------------------------------|
D|---------------------------------------------------------------------------|
A|---------------------------------------------------------------------------|
E|-7/------------------------------------------------------------------------|


[Pre-Chorus]

G|---------------------------------------------------------------------------|
D|---------------------------------------------------------------------------|
A|---------------------------------------------------------------------------|
E|-12-12-12-12-12-12-12-12-12-12-12-12-12-14-14\-4-4-4-4-4-4-4-4-4-4-4-4-4-7-|
                                                                               
G|---------------------------------------------------------------------------|
D|---------------------------------------------------------------------------|
A|---------------------------------------------------------------------------|
E|-7/-12-12-12-12-12-12-12-12-12-12-12-12-12-14-14\-4-4-4-4-4-4-4-4-4-4-4-4--|

G|---------------------------------------------------------------------------|
D|---------------------------------------------------------------------------|
A|---------------------------------------------------------------------------|
E|-4-4-4-4-------------------------------------------------------------------|


[Chorus]

G|---------------------------------------------------------------------------|
D|---------------------------------------------------------------------------| x4
A|---------------------------------------------------------------------------|
E|-0-----------------------0-2-2--4-----------------------4-7-7--------------|


[Bridge]

G|---------------------------------------------------------------------------|
D|---------------------------------------------------------------------------|
A|---------------------------------------------------------------------------|
E|-0-----------------------2-2--4---------------7------0-0-0-0-0-0-0-0-0-0-0-|

G|---------------------------------------------------------------------------|
D|---------------------------------------------------------------------------|
A|---------------------------------------------------------------------------|
E|-0-0-2-2/-4-4-4-4-4-4------------------------------------------------------|


[Outro]

G|---------------------------------------------------------------------------|
D|---------------------------------------------------------------------------| x8
A|---------------------------------------------------------------------------|
E|-0-----------------------0-2-2--4-----------------------4-7-7--------------|

G|---------------------------------------------------------------------------|
D|---------------------------------------------------------------------------| 
A|---------------------------------------------------------------------------|
E|-0-------------2-2--4-------7--------0--------------2-2--4---------7----0--|

------------------------------------------

5. White Noise

Tuning: Standard


[First Verse]

G|--------------------------~------------------------------------------------|
D|----------3~---------------1~----------------------------------------------|x4
A|-------------------------------------------------4~------------------------|
E|---------------------------------------------------------------------------|
(Its hard to be just what you need through a static screen)


[Chorus]

G|-------------------------------------1~------------------------------------|
D|---------------------3~---------------------------1~-----------------------|x2
A|------4~-------------------------------------------------------------------|
E|---------------------------------------------------------------------------|
(I'm watching... I'm waiting... I'm aching... Suffocating...)


[Post-chorus]

G|---------------------------------------------------------------------------|
D|--3~-----------------3~----------------------------------------------------|
A|-----------4~------------------4~------------------------------------------|
E|---------------------------------------------------------------------------|


[Second Verse]

G|--------------------------~------------------------------------------------|
D|----------3~---------------1~----------------------------------------------|x4
A|-------------------------------------------------4~------------------------|
E|---------------------------------------------------------------------------|


[Chorus]

G|-------------------------------------1~------------------------------------|
D|---------------------3~---------------------------1~-----------------------|x2
A|------4~-------------------------------------------------------------------|
E|---------------------------------------------------------------------------|
(I'm watching... I'm waiting... I'm aching... Suffocating...)


[Bridge]

G|----------------------------------------1~---------------------------------|
D|-3~---------------------------------------------------------1~-------------|x2
A|--------------------4~-----------------------------------------------------|
E|---------------------------------------------------------------------------|


[Chorus]

G|-------------------------------------1~------------------------------------|
D|---------------------3~---------------------------1~-----------------------|x2
A|------4~-------------------------------------------------------------------|
E|---------------------------------------------------------------------------|
(I'm watching... I'm waiting... I'm aching... Suffocating...)


[Outro]

G|-------------------------------------1~------------------------------------|
D|---------------------3~---------------------------1~-----------------------|x2
A|------4~-------------------------------------------------------------------|
E|---------------------------------------------------------------------------|

------------------------------------------

6. Fire

Tuning: Standard


[Verse] 

(0:14)

G|---------------------------|
D|---------------------------| x2
A|---------------------------|
E|-0-0-0-------------0-0-0---|


[Chorus]

(0:28)

G|----------------------------------------------------------------------|
D|-2-2-2--0-0-0-------------------5-5-5-5-5-5---2-2-2-2-2-2-2-2---2-2-2-|
A|---------------3-3-3-3-3-3-3-3----------------------------------------|
E|----------------------------------------------------------------------|
                                                                              x2
G|-----------------------2-2-2-2-2-2-2-2------------------|
D|-5-5-5----------------------------------2-2-2-2-2-2-2-2-|
A|-------3-3-3-3-3-3-3-3----------------------------------|
E|--------------------------------------------------------|


[Post-Chorus]

(0:57)

G|----------------------------------------2~----|
D|-2~-0~---------5~------2~---2~-5~-----------2~|
A|-------3~------------------------3~-----------|
E|----------------------------------------------|


[Pause]


[Verse] 

(1:23)

G|---------------------------|
D|---------------------------| x2
A|---------------------------|
E|-0-0-0-------------0-0-0---|


[Chorus] 

(1:38)

G|----------------------------------------------------------------------|
D|-2-2-2--0-0-0-------------------5-5-5-5-5-5---2-2-2-2-2-2-2-2---2-2-2-|
A|---------------3-3-3-3-3-3-3-3----------------------------------------|
E|----------------------------------------------------------------------|
                                                                              x2
G|-----------------------2-2-2-2-2-2-2-2------------------|
D|-5-5-5----------------------------------2-2-2-2-2-2-2-2-|
A|-------3-3-3-3-3-3-3-3----------------------------------|
E|--------------------------------------------------------|


[Post-Chorus] 

(2:06)

G|--------------------------------------------2~---|
D|-2~-0~---------5~------2~---2~-5~--------------2~|
A|-------3~------------------------3~--------------|
E|-------------------------------------------------|


[Bridge]

(2:20)

G|--------------------------------------------2~---|
D|-2~-0~---------5~------2~---2~-5~--------------2~| x2
A|-------3~------------------------3~--------------|
E|-------------------------------------------------|


[Solo] 

(2:40)

G|----------------------------------------------------------------------|
D|-2-2-2--0-0-0-------------------5-5-5-5-5-5---2-2-2-2-2-2-2-2---2-2-2-|
A|---------------3-3-3-3-3-3-3-3----------------------------------------|
E|----------------------------------------------------------------------|

G|-----------------------2-2-2-2-2-2-2-2------------------|
D|-5-5-5----------------------------------2-2-2-2-2-2-2-2-|
A|-------3-3-3-3-3-3-3-3----------------------------------|
E|--------------------------------------------------------|


[Chorus] 

(3:02)

G|----------------------------------------------------------------------|
D|-2-2-2--0-0-0-------------------5-5-5-5-5-5---2-2-2-2-2-2-2-2---2-2-2-|
A|---------------3-3-3-3-3-3-3-3----------------------------------------|
E|----------------------------------------------------------------------|
                                                                              x2
G|-----------------------2-2-2-2-2-2-2-2------------------|
D|-5-5-5----------------------------------2-2-2-2-2-2-2-2-|
A|-------3-3-3-3-3-3-3-3----------------------------------|
E|--------------------------------------------------------|


[Post-Chorus] 

(3:30)

G|--------------------------------------------2~---|
D|-2~-0~---------5~------2~---2~-5~--------------2~|
A|-------3~------------------------3~--------------|
E|-------------------------------------------------|

------------------------------------------

7. Eyelids

Tuning: Standard


[Intro] 

(Quietly) 

(00.00 - 00.13)

G|----------------------------------------------------|
D|-------------5--5--5--5-----------------------------|
A|-7--7--7--7-------------3--3--3--3--3--3--3--3------|
E|----------------------------------------------------| x2


[Verse] 

(00.13 - 00.37)

G|----------------------------------------------------|
D|-------------5--5--5--5-----------------------------|
A|-7--7--7--7-------------3--3--3--3--3--3--3--3------|
E|----------------------------------------------------| x4


[Instrumental]  

(00.37 - 00.50)

G|----------------------------------------------------|
D|-------------5--5--5--5-----------------------------|
A|-7--7--7--7-------------7--7~-------7~--------------|
E|----------------------------------------------------| x2


[Verse]

(00.50 - 01.15)

G|----------------------------------------------------|
D|-------------5--5--5--5-----------------------------|
A|-7--7--7--7-------------3--3--3--3--3--3--3--3------|
E|----------------------------------------------------| x4


[Chorus]

(1.22 - 01.47)

G|------------------------------------------------------------------------------------------------|
D|----------------------------0--5----------------------------------------------------------------|
A|-7--7--7--7--7--7--7--7--7---------3--3--3--3--3--3--3--3--5--5--5--5--5--5--5--5---------------|
E|------------------------------------------------------------------------------------------------| 

G|------------------------------------------------------------------------------------------------|
D|-------------------------------------0--5-------------------------------------------------------|
A|---------7--7--7--7--7--7--7--7--7---------3--3--3--3--3--3--3--3--5--5--5--5--5--5--5--5-------|
E|------------------------------------------------------------------------------------------------| 


[Verse] 

(01.50 - 02.15)

G|----------------------------------------------------|
D|-------------5--5--5--5-----------------------------|
A|-7--7--7--7-------------3--3--3--3--3--3--3--3------|
E|----------------------------------------------------| x4


[Instrumental] 

(02.15 - 02.28)

G|----------------------------------------------------|
D|-------------5--5--5--5-----------------------------|
A|-7--7--7--7-------------3--3--3--3--3--3--3--3------|
E|----------------------------------------------------| x2


[Chorus] 

(02.28 - 02.53)

G|------------------------------------------------------------------------------------------------|
D|----------------------------0--5----------------------------------------------------------------|
A|-7--7--7--7--7--7--7--7--7---------3--3--3--3--3--3--3--3--5--5--5--5--5--5--5--5---------------|
E|------------------------------------------------------------------------------------------------| 

G|------------------------------------------------------------------------------------------------|
D|-------------------------------------0--5-------------------------------------------------------|
A|---------7--7--7--7--7--7--7--7--7---------3--3--3--3--3--3--3--3--5--5--5--5--5--5--5--5-------|
E|------------------------------------------------------------------------------------------------|


[Bridge] 

(02.59 - 03.25)

G|-----------------------------------------------------------------------------------------------------|
D|-----------------------------------------------------------------------------------------------------|
A|-7--7--7--7--7--7--7--7--7--7--7--7--7--7--3--3--------------------------------------------3--3--0~--|
E|-------------------------------------------------0--0--0--0--0--0--0--0--0--0--0--0--0--0------------|

G|-----------------------------------------------------------------------------------------------------|
D|-----------------------------------------------------------------------------------------------------|
A|-------0--0--0--0--0--0--0--0--0--0--0--0--0--0--3--3--3--3--3--3--3--3--3--3--3--3--3--3--3--3------|
E|-----------------------------------------------------------------------------------------------------|


[Chorus]  

(03.25 - 03.51)

G|------------------------------------------------------------------------------------------------|
D|----------------------------0--5----------------------------------------------------------------|
A|-7--7--7--7--7--7--7--7--7---------3--3--3--3--3--3--3--3--5--5--5--5--5--5--5--5---------------|
E|------------------------------------------------------------------------------------------------| 

G|------------------------------------------------------------------------------------------------|
D|-------------------------------------0--5-------------------------------------------------------|
A|---------7--7--7--7--7--7--7--7--7---------3--3--3--3--3--3--3--3--5--5--5--5--5--5--5--5-------|
E|------------------------------------------------------------------------------------------------|

(Rest for first bar)

G|------------------------------------------------------------------------------------------------|
D|-------------------------------------0--5-------------------------------------------------------|
A|---------7--7--7--7--7--7--7--7--7---------3--3--3--3--3--3--3--3--5--5--5--5--5--5--5--5-------|
E|------------------------------------------------------------------------------------------------|


[Outro] 

(03.51 - 04.15)

G|------------------------------------------------------------------------------------------------|
D|-------------------------------------0--5-------------------------------------------------------|
A|---------7--7--7--7--7--7--7--7--7---------3--3--3--3--3--3--3--3--5--5--5--5--5--5--5--5-------|
E|------------------------------------------------------------------------------------------------|

G|------------------------------------------------------------------------------------------------|
D|-------------------------------------0--5-------------------------------------------------------|
A|---------7--7--7--7--7--7--7--7--7---------3--3--3--3--3--3--3--3--5--5--5--5--5--5--5--5-------|
E|------------------------------------------------------------------------------------------------|

------------------------------------------

8. Mirrors

Tuning: Standard


[Chorus]

(00.34 - 00.56)

G|------------------------------------------------------|
D|------------------------------------------------------|
A|------------------------------------------------------|
E|-3--3--3--3--0--0--0--0--7--7--7--7--7--7--7--7-------| x4


[Rest]


[Chorus] 

(01.30 - 02.02)

G|------------------------------------------------------|
D|------------------------------------------------------|
A|------------------------------------------------------|
E|-3--3--3--3--0--0--0--0--7--7--7--7--7--7--7--7-------| x6


[Bridge]

(Softly) 

(02.02 - 02.34)

G|---------------------------------------------------------------------------|
D|-----------------------------------9~-----------------12~------------------|
A|-10~-----------------------7~----------------------------------------------|
E|---------------------------------------------------------------------------| x2

G|------------------------------------------------------|
D|-----------------------------------9~-----------------|
A|-10~--------------------------------------------------|
E|------------------------------------------------------| 


[Chorus] 

(02.45 - End)

G|------------------------------------------------------|
D|------------------------------------------------------|
A|------------------------------------------------------|
E|-3--3--3--3--0--0--0--0--7--7--7--7--7--7--7--7-------| x6

------------------------------------------

9. Ghosts

Tuning: Standard


[Intro] 

(00.06 - 00.14)

G|---------------------------------------------------------------------------|
D|-----------------4-4-4-4-4-4-4-4-------------------------------------------|
A|---------4-4-4-4-----------------1-1-1-1-----------------------------------|
E|-6-6-6-6---------------------------------1-1-1-1-2-2-2-2-2-2-2-2-----------|


[Verse] 

(00.14 - 00.40)

G|---------------------------------------------------------------------------|
D|-----------------4-4-4-4-4-4-4-4-------------------------------------------|
A|---------4-4-4-4-----------------1-1-1-1-----------------------------------|
E|-6-6-6-6---------------------------------1-1-1-1-2-2-2-2-2-2-2-2-----------| x3

G|---------------------------------------------------------------------------|
D|-----------------4-4-4-4-4-4-4-4-------------------------------------------|
A|---------4-4-4-4-----------------1-1-1-1-----------------------------------|
E|-6-6-6-6---------------------------------1-1-1-1-2-2-2-2-6-6-6-6-----------| 


[Instrumental]  

(00.40 - 00.53)

G|---------------------------------------------------------------------------|
D|-----------------4-4-4-4-4-4-4-4-------------------------------------------|
A|---------4-4-4-4-----------------1-1-1-1-----------------------------------|
E|-6-6-6-6---------------------------------1-1-1-1-2-2-2-2-2-2-2-2-----------| x2


[Verse] 

(00.53 - 01.23)

G|---------------------------------------------------------------------------|
D|-----------------4-4-4-4-4-4-4-4-------------------------------------------|
A|---------4-4-4-4-----------------1-1-1-1-----------------------------------|
E|-6-6-6-6---------------------------------1-1-1-1-2-2-2-2-2-2-2-2-----------| x3

G|---------------------------------------------------------------------------|
D|-----------------4-4-4-4-4-4-4-4-------------------------------------------|
A|---------4-4-4-4-----------------1-1-1-1-----------------------------------|
E|-6-6-6-6---------------------------------1-1-1-1-2-2-2-2-6-6-6-6-----------| 


[Chorus] 

(01.23 - 01.50)

G|---------------------------------------------------------------------------|
D|-----------------4-4-4-4-4-4-4-4-------------------------------------------|
A|---------4-4-4-4-----------------1-1-1-1-----------------------------------|
E|-6-6-6-6---------------------------------1-1-1-1-2-2-2-2-2-2-2-2-----------| x4


[Instrumental] - 01.50 - 02.04

G|---------------------------------------------------------------------------|
D|-----------------4-4-4-4-4-4-4-4-------------------------------------------|
A|---------4-4-4-4-----------------1-1-1-1-----------------------------------|
E|-6-6-6-6---------------------------------1-1-1-1-2-2-2-2-2-2-2-2-----------| x2


[Rest]


[Bridge] 

(02.17 - 02.31)

G|---------------------------------------------------------------------------|
D|---------------------------------------------------------------------------|
A|---------------------------------------------------------------------------|
E|-6-6-6-6-6-6-6-6-6-6-6-6-6-6-6-6-9-9-9-9-9-9-9-9-9-9-9-9-9-9-9-9-----------| x2


[Rest]

(02.45 - 02.51)

G|---------------------------------------------------------------------------|
D|---------------------------------------------------------------------------|
A|---------------------------------1-1-1-1-----------------------------------|
E|-----------------------------------------1-1-1-1-2-2-2-2-2-2-2-2-----------| 


[Chorus] 

(02.51 - 03.18)

G|---------------------------------------------------------------------------|
D|-----------------4-4-4-4-4-4-4-4-------------------------------------------|
A|---------4-4-4-4-----------------1-1-1-1-----------------------------------|
E|-6-6-6-6---------------------------------1-1-1-1-2-2-2-2-2-2-2-2-----------| x4

------------------------------------------

10. Let Them In

Tuning: Standard


[Chorus] 

(00.41 - 01.07)

G|---------------------------------------------------------------------------|
D|---------------------------------------------------------------------------|
A|---------------------------------------------------------------------------|
E|-8-8-8-8-8-8-8-8-8-8-8-8-8-8-8-8-0-0-0-0-0-0-0-0-10-10-10-10-10-10-10-10---| x2

G|---------------------------------------------------------------------------|
D|---------------------------------------------------------------------------|
A|---------------------------------------------------------------------------|
E|-8-8-8-8-8-8-8-8-5-5-5-5-5-5-5-5-0-0-0-0-0-0-0-0-10-10-10-10-10-10-10-10---|

G|---------------------------------------------------------------------------|
D|---------------------------------------------------------------------------|
A|---------------------------------------------------------------------------|
E|-5-5-5-5-5-5-5-5-5-5-5-5-5-5-5-5-8-8-8-8-8-8-8-8-10x-----------------------|


[Rest]


[Chorus] 

(01.37 - 02.03)

G|---------------------------------------------------------------------------|
D|---------------------------------------------------------------------------|
A|---------------------------------------------------------------------------|
E|-8-8-8-8-8-8-8-8-8-8-8-8-8-8-8-8-0-0-0-0-0-0-0-0-10-10-10-10-10-10-10-10---| x2

G|---------------------------------------------------------------------------|
D|---------------------------------------------------------------------------|
A|---------------------------------------------------------------------------|
E|-8-8-8-8-8-8-8-8-5-5-5-5-5-5-5-5-0-0-0-0-0-0-0-0-10-10-10-10-10-10-10-10---|

G|---------------------------------------------------------------------------|
D|---------------------------------------------------------------------------|
A|---------------------------------------------------------------------------|
E|-5-5-5-5-5-5-5-5-5-5-5-5-5-5-5-5-8-8-8-8-8-8-8-8-10-10-10-10-10-10-10-10---|


[Rest]


[Chorus] 

(02.59 - End)

G|---------------------------------------------------------------------------|
D|---------------------------------------------------------------------------|
A|---------------------------------------------------------------------------|
E|---------------------------------0-0-0-0-0-0-0-0-10-10-10-10-10-10-10-10---|

G|---------------------------------------------------------------------------|
D|---------------------------------------------------------------------------|
A|---------------------------------------------------------------------------|
E|-8-8-8-8-8-8-8-8-8-8-8-8-8-8-8-8-0-0-0-0-0-0-0-0-10-10-10-10-10-10-10-10---|

G|---------------------------------------------------------------------------|
D|---------------------------------------------------------------------------|
A|---------------------------------------------------------------------------|
E|-8-8-8-8-8-8-8-8-5-5-5-5-5-5-5-5-0-0-0-0-0-0-0-0-10-10-10-10-10-10-10-10---|

G|---------------------------------------------------------------------------|
D|---------------------------------------------------------------------------|
A|---------------------------------------------------------------------------|
E|-5-5-5-5-5-5-5-5-5-5-5-5-5-5-5-5-8-8-8-8-8-8-8-8-10-10-10-10-10-10-10-10---|



************************************
| x   Dead note
| /   Slide up
| \   Slide down
| ~   Vibrato
************************************

            
            
Suggest correction
Creating personal tab
Creating personal tab
You can edit any tab online and save it as your Personal.

You can edit, replace or remove any tab part or add personal notes – all changes will be seen only by you.

Personal tabs can be accessed anytime from any device, even offline.
Learn more »
Give kudos to tab author, rate the tab!
1 2 3 4 5
comments
print report bad tab
guest
You may want to rate the tab now too:
select rating
Wanna post a correction for this tab? Suggest correction