Oops, an error
Loading. Please wait.

Big Beautiful Day tab

1,132 views 1 this week
no commentswrite comment
1 2 3 4 5
x 4
add to favorites
×
Save as Personal and add changes to this tab that will be seen only by you. Learn more ›
×
You can save this tab as Personal to edit and correct it or add notes. All changes will be seen only by you. Learn more »
launch autoscroll
font size
0
reset
how to read this tab
guitar tuner
edit
Autoscroll
slow
fast
+/-
esc
set tempo
stop
All tabs relative to capo.

[Intro] 
(Basically the same as the bridge but with less distortion)
E |-0-0-0--0--0-0-0-|-0-0--0-0-0--0-0-0-|-0-0--0-0-0--0-0-0-|-0--0-0-0--0-0-0-|
B |-0-0-0--0--0-0-0-|-0-0--0-0-0--0-0-0-|-0-0--0-0-0--0-0-0-|-0--0-0-0--0-0-0-|
G#|-3-3-3--3--3-3-3-|-3\2--2-2-2--2-2-2-|-2/5--5-5-5--5-5-5-|-0--0-0-0--0-0-0-|
E |-0-0-0--0--0-0-0-|-0h2--2-2-2--2-2-2-|-2/5--5-5-5--5-5-5-|-5--5-5-5--5-5-5-|
B |-0-0-0--0--0-0-0-|-0h2--2-2-2--2-2-2-|-2/5--5-5-5--5-5-5-|-5--5-5-5--5-5-5-|
E |-0-0-0--0--0-0-0-|-0h2--2-2-2--2-2-2-|-2/5--5-5-5--5-5-5-|-5--5-5-5--5-5-5-|

E |-0-0-0--0--0-0-0-|-0-0--0-0-0--0-0-0-|-0-0--0-0-0--0-0-0-|-0---------------|
B |-0-0-0--0--0-0-0-|-0-0--0-0-0--0-0-0-|-0-0--0-0-0--0-0-0-|-0---------------|
G#|-3-3-3--3--3-3-3-|-3\2--2-2-2--2-2-2-|-2/5--5-5-5--5-5-5-|-5/--------------|
E |-0-0-0--0--0-0-0-|-0h2--2-2-2--2-2-2-|-2/5--5-5-5--5-5-5-|-5/--------------|
B |-0-0-0--0--0-0-0-|-0h2--2-2-2--2-2-2-|-2/5--5-5-5--5-5-5-|-5/--------------|
E |-0-0-0--0--0-0-0-|-0h2--2-2-2--2-2-2-|-2/5--5-5-5--5-5-5-|-5/--------------|

[Bridge]
E |-0-0-0--0--0-0-0-|-0-0--0-0-0--0-0-0-|-0-0--0-0-0--0-0-0-|-0--0-0-0--0-0-0-|
B |-0-0-0--0--0-0-0-|-0-0--0-0-0--0-0-0-|-0-0--0-0-0--0-0-0-|-0--0-0-0--0-0-0-|
G#|-3-3-3--3--3-3-3-|-3\2--2-2-2--2-2-2-|-2/5--5-5-5--5-5-5-|-0--0-0-0--0-0-0-|
E |-0-0-0--0--0-0-0-|-0h2--2-2-2--2-2-2-|-2/5--5-5-5--5-5-5-|-5--5-5-5--5-5-5-|
B |-0-0-0--0--0-0-0-|-0h2--2-2-2--2-2-2-|-2/5--5-5-5--5-5-5-|-5--5-5-5--5-5-5-|
E |-0-0-0--0--0-0-0-|-0h2--2-2-2--2-2-2-|-2/5--5-5-5--5-5-5-|-5--5-5-5--5-5-5-|

E |-0-0-0--0--0-0-0-|-0-0--0-0-0--0-0-0-|-0-0--0-0-0--0-0-0-|-0-0-0-0-0-0-0-|
B |-0-0-0--0--0-0-0-|-0-0--0-0-0--0-0-0-|-0-0--0-0-0--0-0-0-|-0-0-0-0-0-0-0-|
G#|-3-3-3--3--3-3-3-|-3\2--2-2-2--2-2-2-|-2/5--5-5-5--5-5-5-|-5-5-5-5-5-5-5-|
E |-0-0-0--0--0-0-0-|-0h2--2-2-2--2-2-2-|-2/5--5-5-5--5-5-5-|-5-5-5-5-5-5-5-|
B |-0-0-0--0--0-0-0-|-0h2--2-2-2--2-2-2-|-2/5--5-5-5--5-5-5-|-5-5-5-5-5-5-5-|
E |-0-0-0--0--0-0-0-|-0h2--2-2-2--2-2-2-|-2/5--5-5-5--5-5-5-|-5-5-5-5-5-5-5-|

[Verse 1] x2
 PM--------------|--------------|--------------|--------------|
E |-0-0-0--0-0-0-|-2-2-2--2-2-2-|-5-5-5--5-5-5-|-7-7-7--7-7-7-|
B |-0-0-0--0-0-0-|-2-2-2--2-2-2-|-5-5-5--5-5-5-|-7-7-7--7-7-7-|
G#|-0-0-0--0-0-0-|-2-2-2--2-2-2-|-5-5-5--5-5-5-|-7-7-7--7-7-7-|
E |-0-0-0--0-0-0-|-2-2-2--2-2-2-|-5-5-5--5-5-5-|-7-7-7--7-7-7-|
B |-0-0-0--0-0-0-|-2-2-2--2-2-2-|-5-5-5--5-5-5-|-7-7-7--7-7-7-|
E |-0-0-0--0-0-0-|-2-2-2--2-2-2-|-5-5-5--5-5-5-|-7-7-7--7-7-7-|

 PM--------------|--------------|--------------|--------------|
E |-0-0-0--0-0-0-|-2-2-2--2-2-2-|-5-5-5--5-5-5-|-7-7-7--7-7-7-|
B |-0-0-0--0-0-0-|-2-2-2--2-2-2-|-5-5-5--5-5-5-|-7-7-7--7-7-7-|
G#|-0-0-0--0-0-0-|-2-2-2--2-2-2-|-5-5-5--5-5-5-|-7-7-7--7-7-7-|
E |-0-0-0--0-0-0-|-2-2-2--2-2-2-|-5-5-5--5-5-5-|-7-7-7--7-7-7-|
B |-0-0-0--0-0-0-|-2-2-2--2-2-2-|-5-5-5--5-5-5-|-7-7-7--7-7-7-|
E |-0-0-0--0-0-0-|-2-2-2--2-2-2-|-5-5-5--5-5-5-|-7-7-7--7-7-7-|

[Chorus] x2
E |-0-0-0-0-0-0-0-|-2-2-2-2-2-2-2-|-5-5-5-5-5-5-5-|-7-7-7-7-7-7-7-|
B |-0-0-0-0-0-0-0-|-2-2-2-2-2-2-2-|-5-5-5-5-5-5-5-|-7-7-7-7-7-7-7-|
G#|-0-0-0-0-0-0-0-|-2-2-2-2-2-2-2-|-5-5-5-5-5-5-5-|-7-7-7-7-7-7-7-| 
E |-0-0-0-0-0-0-0-|-2-2-2-2-2-2-2-|-5-5-5-5-5-5-5-|-7-7-7-7-7-7-7-|
B |-0-0-0-0-0-0-0-|-2-2-2-2-2-2-2-|-5-5-5-5-5-5-5-|-7-7-7-7-7-7-7-|
E |-0-0-0-0-0-0-0-|-2-2-2-2-2-2-2-|-5-5-5-5-5-5-5-|-7-7-7-7-7-7-7-|


E |-0-0-0-0-0-0-0-|-2-2-2-2-2-2-2-|-5-5-5-5-5-5-5-|-7-7-7-7-7-7-7-|
B |-0-0-0-0-0-0-0-|-2-2-2-2-2-2-2-|-5-5-5-5-5-5-5-|-7-7-7-7-7-7-7-|
G#|-0-0-0-0-0-0-0-|-2-2-2-2-2-2-2-|-5-5-5-5-5-5-5-|-7-7-7-7-7-7-7-| 
E |-0-0-0-0-0-0-0-|-2-2-2-2-2-2-2-|-5-5-5-5-5-5-5-|-7-7-7-7-7-7-7-|
B |-0-0-0-0-0-0-0-|-2-2-2-2-2-2-2-|-5-5-5-5-5-5-5-|-7-7-7-7-7-7-7-|
E |-0-0-0-0-0-0-0-|-2-2-2-2-2-2-2-|-5-5-5-5-5-5-5-|-7-7-7-7-7-7-7-|

[Bridge]
E |-0-0-0--0--0-0-0-|-0-0--0-0-0--0-0-0-|-0-0--0-0-0--0-0-0-|-0--0-0-0--0-0-0-|
B |-0-0-0--0--0-0-0-|-0-0--0-0-0--0-0-0-|-0-0--0-0-0--0-0-0-|-0--0-0-0--0-0-0-|
G#|-3-3-3--3--3-3-3-|-3\2--2-2-2--2-2-2-|-2/5--5-5-5--5-5-5-|-0--0-0-0--0-0-0-|
E |-0-0-0--0--0-0-0-|-0h2--2-2-2--2-2-2-|-2/5--5-5-5--5-5-5-|-5--5-5-5--5-5-5-|
B |-0-0-0--0--0-0-0-|-0h2--2-2-2--2-2-2-|-2/5--5-5-5--5-5-5-|-5--5-5-5--5-5-5-|
E |-0-0-0--0--0-0-0-|-0h2--2-2-2--2-2-2-|-2/5--5-5-5--5-5-5-|-5--5-5-5--5-5-5-|

E |-0-0-0--0--0-0-0-|-0-0--0-0-0--0-0-0-|-0-0--0-0-0--0-0-0-|-0-0-0-0-0-0-0-|
B |-0-0-0--0--0-0-0-|-0-0--0-0-0--0-0-0-|-0-0--0-0-0--0-0-0-|-0-0-0-0-0-0-0-|
G#|-3-3-3--3--3-3-3-|-3\2--2-2-2--2-2-2-|-2/5--5-5-5--5-5-5-|-5-5-5-5-5-5-5-|
E |-0-0-0--0--0-0-0-|-0h2--2-2-2--2-2-2-|-2/5--5-5-5--5-5-5-|-5-5-5-5-5-5-5-|
B |-0-0-0--0--0-0-0-|-0h2--2-2-2--2-2-2-|-2/5--5-5-5--5-5-5-|-5-5-5-5-5-5-5-|
E |-0-0-0--0--0-0-0-|-0h2--2-2-2--2-2-2-|-2/5--5-5-5--5-5-5-|-5-5-5-5-5-5-5-|

[Verse 2]
E |-----0--|-----0--|-----0--|-----0--|
B |-----0--|-----0--|-----0--|-----0--|
G#|-----0--|-----7--|-----5--|-----7--|
E |-----0--|-----7--|-----5--|-----7--|
B |-----0--|-----7--|-----5--|-----7--|
E |-0---0--|-7---7--|-5---5--|-7---7--|

E |-----0--|----0-0--|-----0--|---0-0-0--|
B |-----0--|----0-0--|-----0--|---0-0-0--|
G#|-----0--|----7-7--|-----5--|---7-7-7--|
E |-----0--|----7-7--|-----5--|---7-7-7--|
B |-----0--|----7-7--|-----5--|---7-7-7--|
E |-0---0--|-7--7-7--|-5---5--|-7-7-7-7--|

E |----0-0-----0-0-|----0-0----0-0-|----0-0-----0-0-|----0-0-----0-0-|
B |----0-0-----0-0-|----0-0----0-0-|----0-0-----0-0-|----0-0-----0-0-|
G#|----0-0-----0-0-|----7-7----7-7-|----5-5-----5-5-|----7-7-----7-7-|
E |----0-0-----0-0-|----7-7----7-7-|----5-5-----5-5-|----7-7-----7-7-|
B |----0-0-----0-0-|----7-7----7-7-|----5-5-----5-5-|----7-7-----7-7-|
E |-0--0-0--0--0-0-|-7--7-7--7-7-7-|-5--5-5--5--5-5-|-7--7-7--7--7-7-|

E |----0-0-----0-0-|----0-0----0-0-|-0-0-0-0-0-0-0-|-0-0-0-0-0-0-0-|
B |----0-0-----0-0-|----0-0----0-0-|-0-0-0-0-0-0-0-|-0-0-0-0-0-0-0-|
G#|----0-0-----0-0-|----7-7----7-7-|-5-5-5-5-5-5-5-|-7-7-7-7-7-7-7-|
E |----0-0-----0-0-|----7-7----7-7-|-5-5-5-5-5-5-5-|-7-7-7-7-7-7-7-|
B |----0-0-----0-0-|----7-7----7-7-|-5-5-5-5-5-5-5-|-7-7-7-7-7-7-7-|
E |-0--0-0--0--0-0-|-7--7-7--7-7-7-|-5-5-5-5-5-5-5-|-7-7-7-7-7-7-7-|

[Chorus] x2
E |-0-0-0-0-0-0-0-|-2-2-2-2-2-2-2-|-5-5-5-5-5-5-5-|-7-7-7-7-7-7-7-|
B |-0-0-0-0-0-0-0-|-2-2-2-2-2-2-2-|-5-5-5-5-5-5-5-|-7-7-7-7-7-7-7-|
G#|-0-0-0-0-0-0-0-|-2-2-2-2-2-2-2-|-5-5-5-5-5-5-5-|-7-7-7-7-7-7-7-| 
E |-0-0-0-0-0-0-0-|-2-2-2-2-2-2-2-|-5-5-5-5-5-5-5-|-7-7-7-7-7-7-7-|
B |-0-0-0-0-0-0-0-|-2-2-2-2-2-2-2-|-5-5-5-5-5-5-5-|-7-7-7-7-7-7-7-|
E |-0-0-0-0-0-0-0-|-2-2-2-2-2-2-2-|-5-5-5-5-5-5-5-|-7-7-7-7-7-7-7-|


E |-0-0-0-0-0-0-0-|-2-2-2-2-2-2-2-|-5-5-5-5-5-5-5-|-7-7-7-7-7-7-7-|
B |-0-0-0-0-0-0-0-|-2-2-2-2-2-2-2-|-5-5-5-5-5-5-5-|-7-7-7-7-7-7-7-|
G#|-0-0-0-0-0-0-0-|-2-2-2-2-2-2-2-|-5-5-5-5-5-5-5-|-7-7-7-7-7-7-7-| 
E |-0-0-0-0-0-0-0-|-2-2-2-2-2-2-2-|-5-5-5-5-5-5-5-|-7-7-7-7-7-7-7-|
B |-0-0-0-0-0-0-0-|-2-2-2-2-2-2-2-|-5-5-5-5-5-5-5-|-7-7-7-7-7-7-7-|
E |-0-0-0-0-0-0-0-|-2-2-2-2-2-2-2-|-5-5-5-5-5-5-5-|-7-7-7-7-7-7-7-|

[Bridge]
E |-0-0-0--0--0-0-0-|-0-0--0-0-0--0-0-0-|-0-0--0-0-0--0-0-0-|-0--0-0-0--0-0-0-|
B |-0-0-0--0--0-0-0-|-0-0--0-0-0--0-0-0-|-0-0--0-0-0--0-0-0-|-0--0-0-0--0-0-0-|
G#|-3-3-3--3--3-3-3-|-3\2--2-2-2--2-2-2-|-2/5--5-5-5--5-5-5-|-0--0-0-0--0-0-0-|
E |-0-0-0--0--0-0-0-|-0h2--2-2-2--2-2-2-|-2/5--5-5-5--5-5-5-|-5--5-5-5--5-5-5-|
B |-0-0-0--0--0-0-0-|-0h2--2-2-2--2-2-2-|-2/5--5-5-5--5-5-5-|-5--5-5-5--5-5-5-|
E |-0-0-0--0--0-0-0-|-0h2--2-2-2--2-2-2-|-2/5--5-5-5--5-5-5-|-5--5-5-5--5-5-5-|

E |-0-0-0--0--0-0-0-|-0-0--0-0-0--0-0-0-|-0-0--0-0-0--0-0-0-|-0-0-0-0-0-0-0-|
B |-0-0-0--0--0-0-0-|-0-0--0-0-0--0-0-0-|-0-0--0-0-0--0-0-0-|-0-0-0-0-0-0-0-|
G#|-3-3-3--3--3-3-3-|-3\2--2-2-2--2-2-2-|-2/5--5-5-5--5-5-5-|-5-5-5-5-5-5-5-|
E |-0-0-0--0--0-0-0-|-0h2--2-2-2--2-2-2-|-2/5--5-5-5--5-5-5-|-5-5-5-5-5-5-5-|
B |-0-0-0--0--0-0-0-|-0h2--2-2-2--2-2-2-|-2/5--5-5-5--5-5-5-|-5-5-5-5-5-5-5-|
E |-0-0-0--0--0-0-0-|-0h2--2-2-2--2-2-2-|-2/5--5-5-5--5-5-5-|-5-5-5-5-5-5-5-|

[Outro] x2
E |-0-0-0-0-0-0-0-|-0-0-0-0-0-0-0-0-|-0-0-0-0-0-0-0-|-5-5-5-7-7-7-|
B |-0-0-0-0-0-0-0-|-0-0-0-0-0-0-0-0-|-0-0-0-0-0-0-0-|-5-5-5-7-7-7-|
G#|-0-5h7r0-5h7r0-|-0-5h7r0-0-5h7r0-|-0-5h7r0-5h7r0-|-5-5-5-7-7-7-|
E |-0-0-0-0-0-0-0-|-0-0-0-0-0-0-0-0-|-0-0-0-0-0-0-0-|-5-5-5-7-7-7-|
B |-0-0-0-0-0-0-0-|-0-0-0-0-0-0-0-0-|-0-0-0-0-0-0-0-|-5-5-5-7-7-7-|
E |-0-0-0-0-0-0-0-|-0-0-0-0-0-0-0-0-|-0-0-0-0-0-0-0-|-5-5-5-7-7-7-|

[Final line]
E |-0-0-0-0-0-0-0-|-0-0-0-0-0-0-0-0-|-0-0-0-0-0-0-0-|-0-0-0-0-0-0-0-|
B |-0-0-0-0-0-0-0-|-0-0-0-0-0-0-0-0-|-0-0-0-0-0-0-0-|-0-0-0-0-0-0-0-|
G#|-0-5h7r0-5h7r0-|-0-5h7r0-0-5h7r0-|-0-5h7r0-5h7r0-|-0-5h7r0-5h7r0-|
E |-0-0-0-0-0-0-0-|-0-0-0-0-0-0-0-0-|-0-0-0-0-0-0-0-|-0-0-0-0-0-0-0-|
B |-0-0-0-0-0-0-0-|-0-0-0-0-0-0-0-0-|-0-0-0-0-0-0-0-|-0-0-0-0-0-0-0-|
E |-0-0-0-0-0-0-0-|-0-0-0-0-0-0-0-0-|-0-0-0-0-0-0-0-|-0-0-0-0-0-0-0-|

E |-0-0-0-0-0-0-0-|-0-0-0-0-0-0-0-0-|-5-5-5-5-5-5-5-|-7-7-7-7-7-7-0-|
B |-0-0-0-0-0-0-0-|-0-0-0-0-0-0-0-0-|-5-5-5-5-5-5-5-|-7-7-7-7-7-7-0-|
G#|-0-5h7r0-5h7r0-|-0-5h7r0-0-5h7r0-|-5-5-5-5-5-5-5-|-7-7-7-7-7-7-0-|
E |-0-0-0-0-0-0-0-|-0-0-0-0-0-0-0-0-|-5-5-5-5-5-5-5-|-7-7-7-7-7-7-0-|
B |-0-0-0-0-0-0-0-|-0-0-0-0-0-0-0-0-|-5-5-5-5-5-5-5-|-7-7-7-7-7-7-0-|
E |-0-0-0-0-0-0-0-|-0-0-0-0-0-0-0-0-|-5-5-5-5-5-5-5-|-7-7-7-7-7-7-0-|

************************************

| h   Hammer-on
| p   Pull-off
| r   Release
| /   Slide up
| \   Slide down
| PM  Palm mute

************************************

            
            
Suggest correction
Creating personal tab
Creating personal tab
You can edit any tab online and save it as your Personal.

You can edit, replace or remove any tab part or add personal notes – all changes will be seen only by you.

Personal tabs can be accessed anytime from any device, even offline.
Learn more »
comments
print report bad tab
guest
You may want to rate the tab now too:
select rating
Wanna post a correction for this tab? Suggest correction