Oops, an error
Loading. Please wait.

I Wanna Boi tab

20,617 views 117 this week
2 commentsread comments
1 2 3 4 5
x 30
add to favorites
×
Save as Personal and add changes to this tab that will be seen only by you. Learn more ›
×
You can save this tab as Personal to edit and correct it or add notes. All changes will be seen only by you. Learn more »
launch autoscroll
font size
0
reset
how to read this tab
guitar tuner
edit
Autoscroll
slow
fast
+/-
esc
set tempo
stop
-------------------------------------------------------------------------------
                             I Wanna Boi - PWR BTTM
-------------------------------------------------------------------------------
Tabbed by: Joseph2954
E-mail: 

Tuning: standard       

   This is all pretty much played with your fingers originally.
   I did my best to tab this from a few live videos, hopefully its mostly correct.
   If anythings wrong let me know and I'll make sure to correct it.

Intro:
     e:--------------------|--------------------|---------------------|
     B:--------------------|--------------------|---------------------|
     G:--------------------|--------------------|---------------------|
     D:--------------------|--------------------|---------------------|
     A:--------------------|--------------------|--3------------------|
     E:--1-----------------|--3-----------------|---------------------|        
I wanna boy      to keep the bed warm    while I shower

     e:--------------------|--------------------|---------------------|
     B:--------------------|--------------------|---------------------|
     G:--------------------|--------------------|---------------------|
     D:--------------------|--------------------|---------------------|
     A:--------------------|--------------------|--0-------3----------|
     E:--1-----------------|--3-----------------|---------------------|
I wanna boy      to keep the bed warm while we're watching tv

     e:--------------------|--------------------|---------------------|
     B:--------------------|--------------------|---------------------|
     G:--------------------|--------------------|---------------------|
     D:--------------------|--------------------|---------------------|
     A:--------------------|--------------------|----3---2---1---0----|
     E:--1-----------------|--3-----------------|---------------------|
I wanna boy     to keep the bed warm     When the whole house is freezing

     e:--------------------|--------------------|---------------------|
     B:--------------------|--------------------|---------------------|
     G:--------------------|--------------------|---------------------|
     D:--------------------|--------------------|---------------------|
     A:--------------------|--------------------|--3------------------|
     E:--1-----------------|--3-----------------|---------------------|        
I wanna boy       who isn't anything           like me


         F                 G              C      C
I wanna boy who doesn't like to go out shopping

         F                   G            Am       C
I wanna boy who thinks it's sexy when my lipstick bleeds

         F              G                   C   Am
I wanna boy who can go all night without stopping

         F               G              C
I wanna boy who knows exactly what he needs

                  1!  2!  3!
1st Solo: 
e|---------------------------------------------------------------------------|
B|-------------------0-h-1--0-0--1-3----5------5-4---------------------------|
G|----0----1--2-2-----------0-0-----------5----------------------------------|
D|------------3-3---------------------------5--------------------------------|
A|---------------------------------------------------------------------------|
E|---------------------------------------------------------------------------|

e|---------------------------------------------------------------------------|
B|------------------0-h-1--0-0---1-3--1-/-8----8-7-------------------------|
G|---------1--2-2----------0-0--------0--------------------------------------|
D|------------3-3------------------------------------------------------------|
A|---------------------------------------------------------------------------|
E|---------------------------------------------------------------------------|

e|---------------------------------------------------------------------------|
B|-------------------0-h-1--0-0--1-3----5------5-4---------------------------|
G|---------1--2-2-----------0-------------5----------------------------------|
D|------------3-----------------------------5--------------------------------|
A|---------------------------------------------------------------------------|
E|---------------------------------------------------------------------------|

e|---------------------------------------------------------------------------|
B|-------------------0-h-1--0-0--1-3--1--------------------------------------|
G|---------1--2-2-----------0-0-------0--------------------------------------|
D|------------3-3------------------------------------------------------------|
A|---------------------------------------------------------------------------|
E|---------------------------------------------------------------------------|


         e:--------------------|--------------------|---------------------|
         B:--------------------|--------------------|---------------------|
         G:--------------------|--------------------|---------------------|
         D:--------------------|--------------------|---------------------|
         A:--------------------|--------------------|----3---2---1---0----|
         E:--1-----------------|--3-----------------|---------------------|
So if you think That you're the boy for me           And I'm the boy for you

         e:--------------------|--------------------|---------------------|
         B:--------------------|--------------------|---------------------|
         G:--------------------|--------------------|---------------------|
         D:--------------------|--------------------|---------------------|
         A:--------------------|--------------------|----3---2---1---0----|
         E:--1-----------------|--3-----------------|---------------------|
  Drop me a line at          o b 8 4 1 9 @               bard.edu


           F          G
Tell me little bit about yourself

          C       Am
Send a picture or two

           F
And hurry up now because

      G             C
It's only getting colder

                  1!  2!  3!

2nd Solo:
e|---------------------------------------------------------------------------|
B|-------------------0-h-1--0-0--1-3----5------5-4---------------------------|
G|----0----1--2-2-----------0-0-----------5----------------------------------|
D|------------3-3---------------------------5--------------------------------|
A|---------------------------------------------------------------------------|
E|---------------------------------------------------------------------------|

e|---------------------------------------------------------------------------|
B|------------------0-h-1--0-0---1-3--1-/-8----8-7--------------------------|
G|---------1--2-2----------0-0--------0--------------------------------------|
D|------------3-3------------------------------------------------------------|
A|---------------------------------------------------------------------------|
E|---------------------------------------------------------------------------|

e|---------------------------------------------------------------------------|
B|-------------------0-h-1--0-0--1-3----5-4-3-1------------------------------|
G|---------1--2-2-----------0-----------5-4-3-2------------------------------|
D|------------3--------------------------------------------------------------|
A|---------------------------------------------------------------------------|
E|---------------------------------------------------------------------------|

e|---------------------------------------------------------------------------|
B|-------------------0-h-1--0-0--1-3--1--------------------------------------|
G|---------1--2-2-----------0-0-------0--------------------------------------|
D|------------3-3------------------------------------------------------------|
A|---------------------------------------------------------------------------|
E|---------------------------------------------------------------------------|

**********************************************************************************
Heres the video I used to tab the song https://www.youtube.com/watch?v=t7v7OhkBFTg
***********************************************************************************

| /   slide up
| \   slide down
| h   hammer-on
| p   pull-off
| ~   vibrato
| +   harmonic
| x   Mute note
| b   Bend
| pb  Pre-bend
| br  Bend release
| pbr Pre-bend release
| brb Bend release bend

************************************

            
            
Suggest correction
Creating personal tab
Creating personal tab
You can edit any tab online and save it as your Personal.

You can edit, replace or remove any tab part or add personal notes – all changes will be seen only by you.

Personal tabs can be accessed anytime from any device, even offline.
Learn more »
comments
print report bad tab
2 comments total.
+3 reply
thegay 10 Jan 19, 2016 10:56 PM

Glad to finally find a version with the solo! Good job!

+2 reply
jennyfrlb 10 Mar 08, 2016 01:40 PM

hi! correction at the solo riff, instead of the slide up 1 to 10, its a slide 1 to 8, and then down to 7 (opposed to 1/10--10-9, its 1/8__--7)

guest
You may want to rate the tab now too:
select rating
Wanna post a correction for this tab? Suggest correction