Oops, an error
Loading. Please wait.
We have an official Hammer To Fall tab made by UG professional guitarists. Check out the tab »
×
by Queen
820 views 12 this week
no commentswrite comment
1 2 3 4 5
2 more votes to show rating
add to favorites
×
Save as Personal and add changes to this tab that will be seen only by you. Learn more ›
×
You can save this tab as Personal to edit and correct it or add notes. All changes will be seen only by you. Learn more »
launch autoscroll
font size
0
reset
guitar tuner
backing track
0:00
0:00
edit
Autoscroll
slow
fast
+/-
esc
set tempo
stop
-------------------------------------------------------------------------------
                             Hammer to Fall - Queen
-------------------------------------------------------------------------------
Tabbed by: Nathan Tung
E-mail: nathan.tung@hotmail.com

Tuning:EADG

Intro
G|---------------------------------------------|
D|---------------------------------------------|
A|---------------------------------------------|
E|-14\-5-5----14\-5-5---0-2-0---5-5---0-0-5----|

"Here we stand...Lady Mercy won't be home tonight"
G|--------------------------|
D|--------------------------|
A|--------------------------|
E|--5-5--5-5--5-5--0-0-5----|x2

"You don't waste no time at all....Don't hear the bell but you answer the call"
G|----------------------------------------------------------|
D|----------------------------------------------------------|
A|-2/-12-12-12-12-12-12-12-12-12-12-12-12-12-12-12--7-5-4-0-|
E|----------------------------------------------------------|

"It comes to you as to us all...For the hammer to fall"
G|----------------------------------------------------------|
D|----------------------------------------------------------|
A|-2/-12-12-12-12-12-12-12-12-12-12-12-12-12-12-12--5-4-0-0-|
E|----------------------------------------------------------|

G|--------------------------|
D|--------------------------|
A|--------------------------|
E|--5-5--5-5--5-5--0-0-5----|  

"Oh every night...A little piece of you is falling away"
G|---------------------------------|
D|---------------------------------|
A|---------------------------------|
E|--5-5--0-2-0--5-5--5-5--0-0-5----|

G|--------------------------|
D|--------------------------|
A|--------------------------|
E|--5-5--5-5--5-5--0-0-5----|x2

"Tow the line and play their game...Let the anaesthetic cover it all"
G|----------------------------------------------------------|
D|----------------------------------------------------------|
A|-2/-12-12-12-12-12-12-12-12-12-12-12-12-12-12-12--7-5-4-0-|
E|----------------------------------------------------------|

"Till one day they call your name...You know it's time for the Hammer to Fall"
G|----------------------------------------------------------|
D|----------------------------------------------------------|
A|-2/-12-12-12-12-12-12-12-12-12-12-12-12-12-12-12--5-4-0-0-|
E|----------------------------------------------------------|

G|--------------------------|
D|--------------------------|
A|--------------------------|
E|--5-5--5-5--5-5--0-0-5----|
 
"Rich or poor or famous for...Your truth it's all the same"
G|-----------------------------------------------------------------------|
D|----------------------4-------4-----------6-------6--------------------|
A|-----------------------------------------------------------------------|
E|-0-0-0-0-0-0-0--2-2-2---2-2-2---2---4-4-4---4-4-4---4--5-5-5-5-5-5-5-5-|

G|--------------------|
D|-----5-4--5---------|
A|-5-----------5-7----|
E|---5----------------|

"Lock your door but rain is pouring...Through your window pane"
G|-----------------------------------------------------------------------|
D|----------------------4-------4-----------6-------6--------------------|
A|-----------------------------------------------------------------------|
E|-0-0-0-0-0-0-0--2-2-2---2-2-2---2---4-4-4---4-4-4---4--5-5-5-5-5-5-5-5-|

G|--------------------------------------------------------------------------------|
D|-----------------------6-6-6-6-6-6-6-6-7-7-7-7-7-7-7-7-12-12-12-12-12-12-12-12--|
A|--5-7--7-7-7-7-7-7-7-7----------------------------------------------------------|
E|--------------------------------------------------------------------------------|

Guitar Solo
G|----------------------------------------------------|
D|----------------------------------------------------|
A|-2--2-2--2-2------------------------------0--0-0----|
E|-------------0--0-0--0-0-0-0-0--0-2-3-2-0-----------|x3

G|--------------------------------------------------------------|
D|--------------------------------------------------------------|
A|-3-3-3-3-3-3-3-3-3-3-3-3-3-3-3-3-3-3-3-3-3-3-3-3-3-3-3-3-3-3-3|
E|--------------------------------------------------------------|

G|---------------------------------------------|
D|---------------------------------------------|
A|---------------------------5-4-0-5-4-0-------|
E|-5-5-5-5-5-5-5-5-5-5-5-5-5-------------5-----|


G|--------------------------------------------------------------|
D|/7-7-7-7-7-7-7-7-7-7-7-7-7-7----------------------------------|
A|-----------------------------5-4-0-0--5-4-0-0--5-4-0--5-4-0-5~|
E|--------------------------------------------------------------|

"For we who grew up tall and proud....We just wanna scream it louder and louder"
G|----------------------------------------------------------------|
D|----------------------------------------------------------------|
A|----------------------------------------------------------------|
E|-5-5-5-5-5-5-5-5-5-5-5-5-5-5-5-5-5-5-5-5-5-5-5-5-5-5-5-5-5-5-5-5|

"Just surrender and it won't hurt at all"
G|---------|
D|---------|
A|-5-4-0-0-|
E|---------|

"You just got time to say your prayers...hammer to fall"
G|-------------------------------------|
D|/7-7-7-7-7-7-7-7-7-7-7-7-7-7---------|
A|-----------------------------5-4-0-0-|
E|-------------------------------------|

G|----------------------------------------------------------------|
D|----------------------------------------------------------------|
A|------------------------------------------------------5-4-0-0---|
E|-5-5-5-5-5-5-5-5-5-5-5-5-5-5-5-5-5-5-5-5-5-5-5-5-5-5------------|

G|--------------------------------------------------|
D|/7-7-7-7-7-7-7-7-7-7-7-7-7-7-7-7-7-7-7-7----------|
A|------------------------------------------5-4-0-0-|
E|--------------------------------------------------|

G|----------------------------------------------------------------|
D|----------------------------------------------------------------|
A|------------------------------------------------------5-4-0-0---|
E|-5-5-5-5-5-5-5-5-5-5-5-5-5-5-5-5-5-5-5-5-5-5-5-5-5-5------------|

G|--------------------------------------------------|
D|/7-7-7-7-7-7-7-7-7-7-7-7-7-7-7-7-7-7-7-7----------|
A|------------------------------------------5-4-0-0-|
E|--------------------------------------------------|

G|----------------------------------------------------------------|
D|----------------------------------------------------------------|
A|------------------------------------------------------5-4-0-0---|
E|-5-5-5-5-5-5-5-5-5-5-5-5-5-5-5-5-5-5-5-5-5-5-5-5-5-5------------|

"...While you're waiting for the Hammer to Fall"
G|--------------------------------|
D|------------------------------19|
A|---------------------------19---|
E|--5-5--5-5--5-5--0-0-5/-17------|


| /  slide up
| \  slide down
| h  hammer-on
| p  pull-off
| ~  vibrato
| +  harmonic
| x  Mute note
===============================================================================

            
            
Suggest correction
Creating personal tab
Creating personal tab
You can edit any tab online and save it as your Personal.

You can edit, replace or remove any tab part or add personal notes – all changes will be seen only by you.

Personal tabs can be accessed anytime from any device, even offline.
Learn more »
Give kudos to tab author, rate the tab!
1 2 3 4 5
comments
print report bad tab
guest
You may want to rate the tab now too:
select rating
Wanna post a correction for this tab? Suggest correction