Oops, an error
Loading. Please wait.
We have an official Too Much Love Will Kill You tab made by UG professional guitarists. Check out the tab »
×

Too Much Love Will Kill You bass

version 1
version 1

Whole song

  • Complete version with every variation.

Interactive

by Queen
91 views 1 this week
no commentswrite comment
1 2 3 4 5
3 more votes to show rating
add to favorites
×
Save as Personal and add changes to this tab that will be seen only by you. Learn more ›
×
You can save this tab as Personal to edit and correct it or add notes. All changes will be seen only by you. Learn more »
launch autoscroll
font size
0
reset
guitar tuner
backing track
0:00
0:00
edit
Autoscroll
slow
fast
+/-
esc
set tempo
stop
About this tab version
Complete version with every variation. Was this info helpful? Yes No
Album: Made in Heaven (1995)

The other version was the actual bass line, so here it is.

Tabbed by Leo Chiurco

[Intro]
G|---------------------------------|---------------------------------|
D|---------------------------------|---------------------------------|
A|---------------------------------|---------------------------------|
E|---------------------------------|---------------------------------|
   1 + + + 2 + + + 3 + + + 4 + + +   1 + + + 2 + + + 3 + + + 4 + + +

G|---------------------------------|---------------------------------|
D|---------------------------------|-10--------------12------\-------|
A|-10------------------------------|---------------------------------|
E|---------------------------------|---------------------------------|
   1 + + + 2 + + + 3 + + + 4 + + +   1 + + + 2 + + + 3 + + + 4 + + +

[Verse 1] "Im just the pieces ..."
G|---------------------------------|---------------------------------|
D|-5-------------------------------|---------------------------------|
A|-----------------3---------------|---------------------------------|
E|---------------------------------|-3-----------------------/-------|
   1 + + + 2 + + + 3 + + + 4 + + +   1 + + + 2 + + + 3 + + + 4 + + +

G|-----------------7---------------|-5---------------------------12/-|
D|---------------------------------|---------------------------------|
A|-7-------------------------------|---------------------------------|
E|---------------------------------|---------------------------------|
   1 + + + 2 + + + 3 + + + 4 + + +   1 + + + 2 + + + 3 + + + 4 + + +

G|-14------------------------------|---------------------------------|
D|-----------------14--------------|-----------------14--------------|
A|---------------------------------|-12------------------------------|
E|---------------------------------|---------------------------------|
   1 + + + 2 + + + 3 + + + 4 + + +   1 + + + 2 + + + 3 + + + 4 + + +

G|---------------------------------|---------------------------------|
D|-12------------------------------|-12----------------------------12|
A|-----------------------------12--|-----------------------------12--|
E|---------------------------------|---------------------------------|
   1 + + + 2 + + + 3 + + + 4 + + +   1 + + + 2 + + + 3 + + + 4 + + +

[Verse 2] "I feel like no one ..."
G|---------------------------------|-----------------12------12--11--|
D|-----------------10--------------|-------------12------------------|
A|-10------------------------------|-10------------------------------|
E|---------------------------------|---------------------------------|
   1 + + + 2 + + + 3 + + + 4 + + +   1 + + + 2 + + + 3 + + + 4 + + +

G|-9-------------------------------|---------------------------------|
D|-----------------12--------------|-10------------------------------|
A|---------------------------------|---------------10----------------|
E|---------------------------------|-----------------8---------------|
   1 + + + 2 + + + 3 + + + 4 + + +   1 + + + 2 + + + 3 + + + 4 + + +

G|/14------------------------------|---------------------------------|
D|-------------14------------------|-----------------------------14--|
A|---------------------------------|-12------------------------------|
E|-----------------12--------------|-----------------12--------------|
   1 + + + 2 + + + 3 + + + 4 + + +   1 + + + 2 + + + 3 + + + 4 + + +

G|------------------------------14-|---------------------------------|
D|-12----------------------14/16-16|-0-------------------------------|
A|---------------------------------|---------------12------------5---|
E|---------------------------------|-----------------10--------------|
   1 + + + 2 + + + 3 + + + 4 + + +   1 + + + 2 + + + 3 + + + 4 + + +

[Chorus 1] "Too much love will kill you ..."
G|---------------------------------|---------------------------------|
D|---------------------------------|---------------------------------|
A|-----------------3-----------/---|-7---------------5---------------|
E|-3-------------------------------|---------------------------------|
   1 + + + 2 + + + 3 + + + 4 + + +   1 + + + 2 + + + 3 + + + 4 + + +

G|---------------------------------|---------------------------------|
D|---------------------------------|---------------------------------|
A|-----------------3-----------3-5-|-7---------------5-----------3---|
E|-3-----------3-------------------|---------------------------------|
   1 + + + 2 + + + 3 + + + 4 + + +   1 + + + 2 + + + 3 + + + 4 + + +

G|---------------------------------|---------------------------------|
D|---------------------------------|---------------------------------|
A|-2-----------2---3-----------3---|-5---------------4---------------|
E|---------------------------------|---------------------------------|
   1 + + + 2 + + + 3 + + + 4 + + +   1 + + + 2 + + + 3 + + + 4 + + +

G|---------------------------------|------------------------------12-|
D|-------------------------10h12---|-------------------------12h14-14|
A|-5-------------------------------|-10------------------------------|
E|---------------------------------|---------------------------------|
   1 + + + 2 + + + 3 + + + 4 + + +   1 + + + 2 + + + 3 + + + 4 + + +

G|------------------------------12-|-12--------------------------11--|
D|-10----------------------12h14-14|---------------------------------|
A|---------------------------------|---------------------------------|
E|---------------------------------|---------------------------------|
   1 + + + 2 + + + 3 + + + 4 + + +   1 + + + 2 + + + 3 + + + 4 + + +

G|-----------------7---------------|
D|-14----------\-------------------|
A|-------------------------5\------|
E|---------------------------------|
   1 + + + 2 + + + 3 + + + 4 + + +   

[Verse 3] "I'm just the shadow ..."
G|-------------------------------5-|---------------------------------|
D|-----5-----------------------5---|---------------------------------|
A|-----------------3---------------|---------------------------------|
E|-3-------------------------------|-3-------------3-3-------3---2---|
   1 + + + 2 + + + 3 + + + 4 + + +   1 + + + 2 + + + 3 + + + 4 + + +

G|---------------------------------|-----------------5---------------|
D|---------------------------------|---------------5-----------------|
A|---------------7-5---------------|-3-------------------------------|
E|-0-------------------------------|---------------------------------|
   1 + + + 2 + + + 3 + + + 4 + + +   1 + + + 2 + + + 3 + + + 4 + + +

G|---------------------------------|---------------------------------|
D|---------------------------------|---------------------------------|
A|---------------------------------|---------------------------------|
E|-5---5-----------0-------------0-|-5-------------5-0---------------|
   1 + + + 2 + + + 3 + + + 4 + + +   1 + + + 2 + + + 3 + + + 4 + + +

G|---------------------------------|---------------------------------|
D|---------------------------------|---------------------------------|
A|-5---------------5---------------|-5---5-----------5---5-----------|
E|---------------5---------------5-|---------------5-----------------|
   1 + + + 2 + + + 3 + + + 4 + + +   1 + + + 2 + + + 3 + + + 4 + + +

[Verse 4] "How would it be ..."
G|---------------------------------|---------------------------------|
D|---------------------------------|-5---5---------------------------|
A|-----------------3-------------3-|---------------5-----------------|
E|-3-------------------------------|-----------------3-----------3-2-|
   1 + + + 2 + + + 3 + + + 4 + + +   1 + + + 2 + + + 3 + + + 4 + + +

G|---------------------------------|-----------------5-------5-------|
D|---------------------------------|---------------5-----------5-----|
A|-----------------5---------------|-3---3-----------------------3---|
E|-0---0---------------------------|---------------------------------|
   1 + + + 2 + + + 3 + + + 4 + + +   1 + + + 2 + + + 3 + + + 4 + + +

G|---------------------------------|-------------------------9-------|
D|-----------------------------9---|-7-----------7/9-------9---9-----|
A|-----------------7---------------|-----------------7-----------7---|
E|-5---5---------------------------|---------------------------------|
   1 + + + 2 + + + 3 + + + 4 + + +   1 + + + 2 + + + 3 + + + 4 + + +

G|---------------------------------|---------------------------------|
D|-------------7/9---------7-------|---------------------------------|
A|-5---5---------------------7-5-5-|-5-5-5-5-------5-5-------5\------|
E|---------------------------------|---------------------------------|
   1 + + + 2 + + + 3 + + + 4 + + +   1 + + + 2 + + + 3 + + + 4 + + +

[Chorus 2] "Too much love will kill you ..."
G|---------------------------------|---------------------------------|
D|---------------------------------|---------------------------------|
A|-----------------3-------3---3-5-|-7---------------5-----------3---|
E|-3-------3-----3-----------------|---------------------------------|
   1 + + + 2 + + + 3 + + + 4 + + +   1 + + + 2 + + + 3 + + + 4 + + +

G|---------------------------------|---------------------------------|
D|---------------------------------|---------------------------------|
A|-----------------3-------3---/---|-7---------------5-----------3---|
E|-3-------3---3-5-----------------|---------------------------------|
   1 + + + 2 + + + 3 + + + 4 + + +   1 + + + 2 + + + 3 + + + 4 + + +

G|---------------------------------|---------------------------------|
D|---------------------------------|-----------------11--------------|
A|-2-----------2---3-----------2-3-|-5-----------/-------------------|
E|---------------------------------|---------------------------------|
   1 + + + 2 + + + 3 + + + 4 + + +   1 + + + 2 + + + 3 + + + 4 + + +

G|---------------------------------|------------------------------12-|
D|-12------------------------------|-------------------------12h14-14|
A|---------------------------------|-10------------------------------|
E|---------------------------------|---------------------------------|
   1 + + + 2 + + + 3 + + + 4 + + +   1 + + + 2 + + + 3 + + + 4 + + +

G|---------------------------------|
D|-10------------------------------|
A|---------------10----------------|
E|-----------------8-------8\------|
   1 + + + 2 + + + 3 + + + 4 + + +  

[Guitar Solo]
G|---------------------------------|---------------------------------|
D|---------------------------------|---------------------------------|
A|-----------------3---------------|---------------------------------|
E|-3-------------------------------|-3-----------3---3-------3---2---|
   1 + + + 2 + + + 3 + + + 4 + + +   1 + + + 2 + + + 3 + + + 4 + + +

G|---------------------------------|-----------------5/7\5-----------|
D|---------------------------------|---------------5-----------------|
A|-----------------5---------------|-3-------------------------------|
E|-0-------------------------------|---------------------------------|
   1 + + + 2 + + + 3 + + + 4 + + +   1 + + + 2 + + + 3 + + + 4 + + +

G|---------------------------------|-------------------------------9-|
D|---------------------------------|-7-----------7-------------------|
A|---------------------------------|-----------------7-----------7---|
E|-5-----------5-3-0---------------|---------------------------------|
   1 + + + 2 + + + 3 + + + 4 + + +   1 + + + 2 + + + 3 + + + 4 + + +

G|-----------------7---------------|---------7-----------------------|
D|---------------7-----------------|-------7-------7-------7---------|
A|-5---------------------------5-5-|-5---------------5-------5-\-----|
E|---------------------------------|---------------------------------|
   1 + + + 2 + + + 3 + + + 4 + + +   1 + + + 2 + + + 3 + + + 4 + + +

[Chorus 3] "Too much love will kill you ..."
G|---------------------------------|---------------------------------|
D|-5-------5-----------------------|---------------------------------|
A|-----------------3-----------3-5-|-7---------------5-------5\------|
E|---------------------------------|---------------------------------|
   1 + + + 2 + + + 3 + + + 4 + + +   1 + + + 2 + + + 3 + + + 4 + + +

G|---------------------------------|---------------------------------|
D|---------------------------------|---------------------------------|
A|-----------------3-------3-/-----|-----------------5-----------3---|
E|-3-------3-----------------------|-0-------0-----------------------|
   1 + + + 2 + + + 3 + + + 4 + + +   1 + + + 2 + + + 3 + + + 4 + + +

G|---------------------------------|---------------------------------|
D|---------------------------------|-------------7-/-11--------------|
A|-2---------------3---------------|-5-------------------------------|
E|---------------------------------|---------------------------------|
   1 + + + 2 + + + 3 + + + 4 + + +   1 + + + 2 + + + 3 + + + 4 + + +

G|---------------------------------|---------------------------------|
D|-12------------------------------|-12------------------\-----------|
A|---------------------------------|---------------------------------|
E|---------------------------------|---------------------------------|
   1 + + + 2 + + + 3 + + + 4 + + +   1 + + + 2 + + + 3 + + + 4 + + +

[Outro]
G|---------------------------------|---------------------------------|
D|---------------------------------|---------------4-----------------|
A|---------------------------2-5-2-|-3---------------5---------------|
E|-3-----------------------3-------|-----------------------------5---|
   1 + + + 2 + + + 3 + + + 4 + + +   1 + + + 2 + + + 3 + + + 4 + + +

G|---------------------------------|---------------------------------|
D|-------------2-------------------|---------------------------------|
A|---------------5--------------10-|-------------10/-14--------------|
E|-3---------------3-/-----10h12-12|-8-------------------------------|
   1 + + + 2 + + + 3 + + + 4 + + +   1 + + + 2 + + + 3 + + + 4 + + +

***********************************

| h Hammer-on
| / Slide up
| \ Slide down

***********************************

            
            
Suggest correction
Creating personal tab
Creating personal tab
You can edit any tab online and save it as your Personal.

You can edit, replace or remove any tab part or add personal notes – all changes will be seen only by you.

Personal tabs can be accessed anytime from any device, even offline.
Learn more »
Give kudos to tab author, rate the tab!
1 2 3 4 5
comments
print report bad tab
guest
You may want to rate the tab now too:
select rating
Wanna post a correction for this tab? Suggest correction