Oops, an error
Loading. Please wait.
We have an official We Are The Champions tab made by UG professional guitarists. Check out the tab »
×
by Queen
35,308 views 75 this week
2 commentsread comments
1 2 3 4 5
x 15
add to favorites
×
Save as Personal and add changes to this tab that will be seen only by you. Learn more ›
×
You can save this tab as Personal to edit and correct it or add notes. All changes will be seen only by you. Learn more »
launch autoscroll
font size
0
reset
guitar tuner
backing track
0:00
0:00
edit
Autoscroll
slow
fast
+/-
esc
set tempo
stop
Author
Difficulty
intermediate
Artist: Queen                       
Song: We Are The Champions Artist: Queen
Tabbed By : BorisQ

Tuning: Standard (E-A-D-G)

[Verse 1]
    *.. *..   *  .  .  * .  .    *.. *..   *  .  .  *  .  .
G|-17-------|---19-15---------|----------|---12-12-12-12-12-|
D|----------|---------12-8----|-10-------|------------------|
A|----------|--------------10-|----------|------------------|
E|----------|-----------------|----------|------------------|

    *.. *..  *.. *..   *.. *..   *.. * . .   *.. *..   *.. *..
G|---------|---------|---------|---------7-|-8-------|---------|
D|-10------|---------|---------|-------8---|---------|---------|
A|---------|---------|---------|-----------|---------|---------|
E|---------|---------|---------|-----------|---------|---------|

   *.. *..   *.. *..   *.. *..   *.. *..   *.. *..   *.. *..   *.. *..
G|---------|-----8---|---------|---------|---------|---------|---------|
D|-1-------|---------|---------|-----3---|---------|---------|---------|
A|---------|---------|-6---5---|-3-------|-1-------|---------|-----3---|
E|---------|---------|---------|---------|---------|---------|---------|

[Chorus 1]
   *.. * . .   *.. * . .   *.. * . .   *.. *..   *.. * . .   *.. * . .
G|-----------|-----------|-----7-----|---------|-----------|-------2-2-|
D|-3-----3-5-|-7-----7-7-|-------7---|---------|---------3-|-----------|
A|-----------|-----------|-5-------5-|-1---3---|-----------|-0---------|
E|-----------|-----------|-----------|---------|-1---------|-----------|

   *.. * . .   *.. *..   *.. *. .   *.. *..   *.. *. .   *.. *..   *..  *..
G|-----------|---------|----------|---------|----------|---------|-----10---|
D|-----------|---------|--------5-|---------|----------|-2---5---|-3--------|
A|-1-----0---|---------|----------|-------0-|-1------4-|---------|----------|
E|---------3-|-2-------|-3--------|-3-------|----------|---------|----------|

   *..     * .  .   *..    * .  .   *..  *    .  .   *  . . *..
G|------8h10-8----|-----8h10-8----|-----10-10-8----|------------|
D|-5-----------10-|-6----------10-|-8-----------10-|---10-------|
A|----------------|---------------|----------------|------------|
E|----------------|---------------|----------------|-8----------|

   *.. *..    *.. *..   *.. *..   *.. *..   *.. *..    *  . . *..
G|---------|-10-------|---------|---------|---------|-17-17-------|
D|---------|----------|---------|---------|---------|-------------|
A|-8-------|----------|---------|---------|---------|-------------|
E|---------|----------|---------|---------|---------|-------------|

[Verse 2]
    *.. *..   * .  . *  .  .    *.. *..   *  .-----. *  .  .    *.. *..
G|----------|-----19---15-19-|-17-------|---19-15------15-19-|-17-------|
D|----------|--17------------|----------|---------17---------|----------|
A|-15-------|----------------|----------|--------------------|----------|
E|----------|----------------|----------|--------------------|----------|

   * .  . *  .  .    *.. *..   *.. * . .   *.. * . .   *.. * . .
G|--19------15-19-|-17-------|---------7-|-8-----8-8-|-----8-8-8-|
D|-----17---------|----------|-------8---|-----------|\1---------|
A|----------------|----------|-----------|-----------|-----------|
E|----------------|----------|-----------|-----------|-----------|

   *.. * . .     *.. * . .   *.. *..   *.. *..   *.. *..   *.. *..
G|-----8---8-8-|-------8-8-|---------|---------|---------|---------|
D|-------------|-----------|---------|-----3---|---------|---------|
A|-6-----------|-6---------|-6---5---|-3-------|-1-------|---------|
E|-------------|-----------|---------|---------|---------|---------|

   *.. *..
G|---------|
D|---------|
A|-----3---|
E|---------|

[Chorus 2]
   *.. *..   *.. * .---.   *.. *. .   *.. *..   *.. *. .   *.. * . .
G|---------|-2-----2---2-|----------|---------|----------|-------2-2-|
D|-3-------|---------2---|-0----0-0-|---------|-3----3-5-|-----------|
A|---------|-------------|----------|-1---3---|----------|-0---------|
E|---------|-------------|----------|---------|----------|-----------|

   *.. * . .   *.. *..   *..    * .   .     *.. *..   *.. *..   *.. *..
G|-----------|---------|------------------|---------|---------|---------|
D|-----------|---------|------5/8-5-3---5-|---------|---------|-2---5---|
A|-1-----0---|---------|--------------5---|---------|-1-----4-|---------|
E|---------3-|-2-------|-3----------------|-3-------|---------|---------|

   *..  *  .  .   *.. *    . .   *.. *    .  .   *..  .-----. .
G|-----10-10-10-|-------8h10-8-|-------8h10-10-|-----10-10-10-8-|
D|-3------------|-5---8--------|-6-------------|-8--------------|
A|--------------|--------------|---------------|----------------| 
E|--------------|--------------|---------------|----------------|

    *  . . *..
G|-10----------|
D|----10-------|
A|-------------|
E|-------------|

[Chorus 3]
   *.. * . .   *.. * . .   *.. *..   *.. *..   *.. * . .   *.. *..
G|---------0-|-2-------2-|---------|---------|-----------|---------|
D|-3---------|-----------|-0-------|---------|-----------|---------|
A|-----------|-----------|---------|-1---3---|-----------|-0-------|
E|-----------|-----------|---------|---------|-1-------3-|---------|

   *.. * . .   *.. *..   *.. *..   *.. * . .   *.. * . .   *.. *..
G|-----------|---------|---------|-----------|-----------|---------|
D|-----------|---------|---------|-----------|-----------|-2---5---|
A|-1-----0---|---------|---------|---------0-|-1-------4-|---------|
E|---------3-|-2-------|-3-------|-3---3-----|-----------|---------|

   *.. * . .   *..    *  .  .   *..    * . .   *..    * . .
G|-----5-5-5-|-----8h10-10-10-|-----8h10-8---|-----8h10-8-8-|
D|-3---------|-5--------------|-6------------|-8------------|
A|-----------|----------------|--------------|--------------|
E|-----------|----------------|--------------|--------------|

      *  . . *..
G|-8h10----------|
D|------10-------|
A|---------------|
E|---------------|


************************************

| .  Staccato
| h  Hammer-on
| \  Slide down
| /  Slide up

************************************

            
            
Suggest correction
Creating personal tab
Creating personal tab
You can edit any tab online and save it as your Personal.

You can edit, replace or remove any tab part or add personal notes – all changes will be seen only by you.

Personal tabs can be accessed anytime from any device, even offline.
Learn more »
comments
print report bad tab
2 comments total.
+1 reply
rbnbass 41 Oct 27, 2010 07:37 AM

Best tab of this song around!

0 reply
drakemartian 74 Sep 23, 2016 05:32 PM

some wrong parts but pretty good

guest
You may want to rate the tab now too:
select rating
Wanna post a correction for this tab? Suggest correction