Oops, an error
Loading. Please wait.

Who Needs You tab

version 1
version 1

Whole song

Interactive

by Queen
10,609 views 39 this week
2 commentsread comments
1 2 3 4 5
x 6
add to favorites
×
Save as Personal and add changes to this tab that will be seen only by you. Learn more ›
×
You can save this tab as Personal to edit and correct it or add notes. All changes will be seen only by you. Learn more »
launch autoscroll
font size
0
reset
how to read this tab
guitar tuner
edit
Autoscroll
slow
fast
+/-
esc
set tempo
stop
                QUEEN: WHO NEEDS YOU
               from NEWS OF THE WORLD
                 1977  John Deacon

right acoustic guitar
|-------------------------------|
|-------------------------------|
|-------------------------------|
|-------2/4--2----4p2p0------2--|
|-0--4-----------------2-----0--|
|-------------------------0-----|

right ac. g. 
   A             D        A      D         A       B7  E
|-----0-0---0----2-----2-----0----2-----2-----0------------|
|-----2-2---2----3-----3-----2----3-----3-----2------7--9--|
|-----2-2---2----2-----2-----2----2-----2-----2------8--9--|
|----------------0---0---0--------0---0---0----------7--9--|
|-0-------0----------------0----------------0-----------7--|
|-------------------------------------------------7--------|
|left ac. g.
|-----0-0---0----2-----2------0---2-----2-----0------------|
|-----2-2---2----3-----3------2---3-----3-----2------7--9--|
|-----2-2---2----2-----2------2---2-----2-----2------8--9--|
|----------------0---0---h2-------0---0---0----------7--9--|
|-0-------0-----------------0---------------0-----------7--|
|-------------------------------------------------7--------|

two ac. g. arr.for one
|-----0-0---0----2-----2-----0----2-----2-----0------------|
|-----2-2---2----3-----3-----2----3-----3-----2------7--9--|
|-----2-2---0----2-----2-----2----2-----2-----2------8--9--|
|----------------0---0------------0---0---0----------7--9--|
|-0-------0--------------0-0----------------0-----------7--|
|-------------------------------------------------7--------|


                                               Bm7   C#m7  Bm7
   D       E7   A           D     E7    A F#m    E7   F#7     E7
|-2----------2-------|----|-2--------2-----2---2-----4-----2------|
|---------3--3-------|----|-------3--3-----2---3-3---5-5---3-3--3-|
|-2(p0)---4--4--2-2--|-0/-|-2(p0)-4--4--2--2---2-1---4-3---2-1--1-|
|-0-------------2-2--|-/0-|-0-----------2--------2-----4-----2-2--|
|---------------0-0--|----|-------------0-----2-----4-----2-------|
|---------4-4--------|----|-------4-4------2----------------------|

  A  A   E   E          B   A  E    F#m  G#m E
|---------------|----|---------------2--2--2/4---0----|----|
|---------------|----|-/4--/2--------2--2--2/4---0--0-|----|
|-2--2---4---4--|-0/-|-\4--\2--4--4--2--2--2/4-1-1--1-|-0/-|
|-2--2---4h6-6--|-/0-|-/4--/2--6--6-----------------2-|-/0-|
|-0--0---7---7--|----|-\6--\4--7--7-----------------2-|----|
|--------0---0--|----|---------0-----2--2--------0----|----|


  C#m      A         A7  C#m7     F#m       A         B       E       E7
|--------4-----------0----------------------------------------0-0---0-0-0--0-|
|-5--5---5-------2-2-2--5--5---5---2-----5--2--2---2--4-4--4--0-0---3-3-3--3-|
|-6--6---6-------2-1-0--4--4---4---4-3---3--2--2---2--4-4--4--1-1---1-1-1--1-|
|-6--6------------------6--6---6---4-4---2--2--2---2--4-4--4--------2-2-2-2--|
|-4--4--4---------------4--4--4------4------0--0--0---2-2-2------------------|
|----------0----------------------2-----2---------------------0-0------------|


|-----0-0---0----2-----2-----0----2-----2-----0------------|----|
|-----2-2---2----3-----3-----2----3-----3-----2------7--9--|----|
|-----2-2---2----2-----2-----2----2-----2-----2------8--9--|-0/-|
|----------------0---0---0--------0---0---0----------7--9--|-/0-|
|-0-------0----------------0----------------0-----------7--|----|
|-------------------------------------------------7--------|----|

|-2--------2----------2-----4-----2----------|
|-------3--3----------3-3---5-5---3-3--3--2--|
|-2(p0)-4--4--2--2----2-1---4-3---2-1--1--2--|
|-0-----------2--2------2-----4-----2-2---2--|
|-------------0--0---2-----4-----2--------0--|
|-------4-4----------------------------------|

right            left
|---------------|------------|
|---------------|------------|
|---------------|------------|
|-------2/4--2--|-4p2p0------|
|-0--4----------|------2-----|
|---------------|---------0--|


|----------0--0---2--2--2/4--------|------|
|-/4--/2---0--0---2--2--2/4--5--0--|------|
|-\4--\2---1--1---2--2--2/4--4--1--|--0/--|
|-/4--/2---------------------6--2--|--/0--|
|-\6--\4---------------------7--2--|------|
|-----------------2--2-------------|------|


|--------------------------------------------------0-0--0--0-0-0--0-|
|-5-5--5--2-2--2--5-5--5---2-2--2--2-2--2--4-4--4--0-0--2--3-3-3--3-|
|-6-6--6--2-2--2--4-4--4---4-3--3--2-2--2--4-4--4--1-1--1--1-1-1--1-|
|-6-6--6--2-2--2--6-6--6---4-4--4--2-2--2--4-4--4----------2-2-2-2--|
|-4-4-4---0-0-0---4-4-4------4-----0-0-0---2-2-2--------------------|
|-------------------------2----2-------------------0-0-0------------|


|-----0-0---0----2-----2-----0----2-----2-----0----------------|
|-----2-2---2----3-----3-----2----3-----3-----2------7--9------|
|-----2-2---2----2-----2-----2----2-----2-----2------8--9------|
|----------------0---0---0--------0---0---0----------7--9--6---|
|-0-------0----------------0----------------0-----------7------|
|-------------------------------------------------7----------0-|

|-----0-0---0----2-----2-----0----2-----2-----0------------|
|-----2-2---2----3-----3-----2----3-----3-----2------7--9--|
|-----2-2---0----2-----2-----2----2-----2-----2------8--9--|
|----------------0---0---0--------0---0---0----------7--9--|
|-0-------0----------------0----------------0-----------7--|
|-------------------------------------------------7--------|



|-2---------2-------|----|-2--------2----2----2-----4----2---2-0--0-|
|--------3--3-------|----|-------3--3--2-2----3-3---5-5--5---3-3--3-|
|-2(p0)--4--4--2-2--|-0/-|-2(p0)-4--4--2-2----2-1---4-3--3---2-1--1-|
|-0------------2-2--|-/0-|-0-----------2--------2-----4-4------2-2--|
|--------------0-0--|----|-------------0-----2-----4--------2-------|
|--------4-4--------|----|-------4-4-----2--------------------------|

  A      E      ___ D C#m7 Bm7 Dmaj7 
|-----------------7-----------2-2-|
|-2--2---5---5---9-------5----3-2-|
|-2--2---4---4--9---7----4----2-2-|
|-2--2---4h6-6------7----6--------|
|-0--0---7---7------5----4---2--0-|
-|--------------------------------|


and here come the solos...
(right)
0'40" _________                                        ______
|----------9-12---10-9-10---10---10-9-----------------------9---12---9----------------|
|-10----10----------------------------12-10-9------10-----10-------------10-----------|
|-----9---------------------------------------10-9-------9--------------------11-10-9-|
|------------------------------------------------------11-----------------------------|
|-------------------------------------------------------------------------------------|
|-------------------------------------------------------------------------------------|

 1'05"                    1'10"
|-------------------------||-------0-4--2h4p2--0-2--|
|-5p4---------------------||-----2------------------|
|------6------------------||---3--------------------|
|---------4h6--4h6p4------||-4----------------------|
|--------------------7--0-||------------------------|
|-------------------------||------------------------|

 1'17"                                                 ______
|------------------------------------------9-------10--9h10p9---------12-----|
|-------------------------10--10p9-10--12-----10--------------12--10------10-|
|--------9/11-9--11-9-8-9----------------------------------------------------|
|---6-9----------------------------------------------------------------------|
|-7--------------------------------------------------------------------------|
|----------------------------------------------------------------------------|
      ______
|-10--9h10p9---------12-------11----------------|
|------------12--10------10-------12------------|
|-------------------------------------11--10--9-|
|-----------------------------------------------|
|-----------------------------------------------|
|-----------------------------------------------|
                                          ________
|--------------9-10-12-------12/14---12---10h12p10-9-10---9----------12------|
|------9-10-12-----------9-----------------------------------12--10------10--|
|-9-11-----------------------------------------------------------------------|
|----------------------------------------------------------------------------|
|----------------------------------------------------------------------------|
|----------------------------------------------------------------------------|

                                                               _____
|-10p9----------------------------12-14(p10--)-10--------------9-----------|
|------12-10-9-10----------------------(---12)----12-9----------10---------|
|-----------------9---8-------9------------------------11-10-9----9--------|
|-------------------------9----------------------------------------12--11--|
|--------------------------------------------------------------------------|
|--------------------------------------------------------------------------|

                      --4-         --4-
|---------------------9------------7-----------------------------|
|-10---12--------------9------------7---------------------5/7--5-|
|----------11--9/11-9---9------------7----------9\-----6---------|
|------------------------9--9--8------9--7--6-------7------------|
|----------------------------------------------------------------|
|----------------------------------------------------------------|

 1'50"
|--<12>-<12>-----<12>-<12>-----<12>-<12>---<12>-<12>-----<7>------<7>-<5>---|
|---------------------------------------------------------------------------|
|---------------------------------------------------------------------------|
|---------------------------------------------------------------------------|
|---------------------------------------------------------------------------|
|---------------------------------------------------------------------------|

 2'05"                    2'10"
|-4-5-4-----------------||----4-2-0-2-0---------------------------|
|-------7-5-4-5-4-------||-02-----------2-0-2-0----------2--0h2h4-|
|-----------------6-4-6-||----------------------2-1-2-------------|
|-----------------------||----------------------------------------|
|-----------------------||----------------------------------------|
|-----------------------||----------------------------------------|
 
 2'17" 
 _______
|---7-10-9-7--------------------------------------|
|--9---------10-9-7----------------------------10-|
|-9-----------------9-8-7---9/11--9---11-9-8-9----|
|-------------------------------------------------|
|-------------------------------------------------|
|-------------------------------------------------|

 2'34"
|-------------------------(10)--|
|-----------9-10-12-9-10--------|
|--------9----------------------|
|-----9-------------------------|
|-9h11--------------------------|
|-------------------------------|

 2'45"                                2'57"
|--------------9-10-12--9-----------||-12-10-9---------------|
|------9-10-12-------------10p9-----||---------12-10-9-------|
|-9-11--------------------------11--||-----------------11-9--|
|-----------------------------------||-----------------------|
|-----------------------------------||-----------------------|
|-----------------------------------||-----------------------|

            
            
Suggest correction
Creating personal tab
Creating personal tab
You can edit any tab online and save it as your Personal.

You can edit, replace or remove any tab part or add personal notes – all changes will be seen only by you.

Personal tabs can be accessed anytime from any device, even offline.
Learn more »
comments
print report bad tab
2 comments total.
0 reply
rock_or_roll 10 Feb 21, 2007 12:16 AM

nice work, thanks alot

0 reply
Idon'tremember 31 Sep 26, 2009 03:01 PM

he copied it from queensongs.info

guest
Wanna post a correction for this tab? Suggest correction