Oops, an error
Loading. Please wait.
We have an official First It Giveth tab made by UG professional guitarists. Check out the tab »
×
587 views 3 this week
no commentswrite comment
1 2 3 4 5
3 more votes to show rating
add to favorites
×
Save as Personal and add changes to this tab that will be seen only by you. Learn more ›
×
You can save this tab as Personal to edit and correct it or add notes. All changes will be seen only by you. Learn more »
launch autoscroll
font size
0
reset
guitar tuner
backing track
0:00
0:00
edit
Autoscroll
slow
fast
+/-
esc
set tempo
stop
Author
Difficulty
Artist:    Queens of the Stone Age
Song:      First It Giveth
Album:     Songs for the Deaf
Bassist    Nick Oliveri
Tuning:    C# (one and half step down)
Tabbed By: Pindapoeper

Intro:
E  :|-------------------------------------|
B  :|-------------------------------------|
F# :|-44444444-55555555-------------------|
C# :|-------------------44444444-00000000-|

E  :|-------------------------------------|
B  :|-------------------------------------|
F# :|-44444444-55555555-------------------|
C# :|-------------------44444444-44444444-|

E  :|-------------------------------------|
B  :|-------------------------------------|
F# :|-44444444-55555555-------------------|
C# :|-------------------44444444-00000000-|

E  :|---------------------------------------|
B  :|---------------------------------------|
F# :|-4444442h4-5555554h5-77777777-77777777-|
C# :|---------------------------------------|

Verse:
E  :|----------------------------------------|
B  :|----------------------------------------|
F# :|-4444442h4-5555554h5--------------------|
C# :|---------------------4444442h4-00000000-|

E  :|---------------------------------------|
B  :|---------------------------------------|
F# :|-4444442h4-5555554h5-77777777----------|
C# :|------------------------------44444444-|

E  :|----------------------------------------|
B  :|----------------------------------------|
F# :|-4444442h4-5555554h5--------------------|
C# :|---------------------4444442h4-00000000-|

E  :|-------------------------------------|
B  :|-------------------------------------|
F# :|-44444444-55555555-------------------|
C# :|-------------------44444444-44444444-|

E  :|----------------------------------------|
B  :|----------------------------------------|
F# :|-4444442h4-5555554h5--------------------|
C# :|---------------------4444442h4-00000000-|

E  :|-------------------------------------|
B  :|-------------------------------------|
F# :|-44444444-55555555-------------------|
C# :|-------------------44444444-00000000-|

E  :|---------------------------------------|
B  :|------------------------------666---66-|
F# :|-4444442h4-5555554h5-77777777----777---|
C# :|---------------------------------------|

E  :|-------------------------------------|
B  :|-------------------------------------|
F# :|-44444444-55555555-------------------|
C# :|-------------------44444444-44444444-|

Chorus: x4
E  :|-------------------------------------|
B  :|-------------------------------------|
F# :|-44444444-44444444-44444444-44444444-|
C# :|-------------------------------------|

E  :|-------------------------------------|
B  :|-------------------------------------|
F# :|-77777777-77777777-00000000----------|
C# :|----------------------------22222222-|

* the 7's can be played as power chord; B  99999999-99999999 
                                        F# 77777777-77777777

Post-Chorus: x2
E  :|----------------------------------------|
B  :|----------------------------------------|
F# :|-4444442h45-5-5-5-5---------------------|
C# :|--------------------4444442h40-0-0-0-0--|

Verse:
E   :|-------------------------------------|
B   :|-------------------------------------|
F#  :|-RRRRRRRR-RRRRRRRR-RRRRRRRR-RRRRRRRR-|
C#  :|-------------------------------------| x2

E  :|-------------------------------------|
B  :|-------------------------------------|
F# :|-44444444-55555555-------------------|
C# :|-------------------44444444-00000000-|

E  :|-------------------------------------|
B  :|-------------------------------------|
F# :|-44444444-55555555-------------------|
C# :|-------------------44444444-44444444-|

E  :|----------------------------------------|
B  :|----------------------------------------|
F# :|-4444442h4-5555554h5--------------------|
C# :|---------------------4444442h4-00000000-|

E  :|---------------------------------------|
B  :|------------------------------666---66-|
F# :|-4444442h4-5555554h5-77777777----777---|
C# :|---------------------------------------|

E  :|---------------------------------------|
B  :|---------------------------------------|
F# :|-4444442h4-5555554h5-77777777----------|
C# :|------------------------------44444444-|

E  :|-------------------------------------|
B  :|-------------------------------------|
F# :|-44444444-55555555-------------------|
C# :|-------------------44444444-44444444-|

Chorus: 4x
E  :|-------------------------------------|
B  :|-------------------------------------|
F# :|-44444444-44444444-44444444-44444444-|
C# :|-------------------------------------|
                        
E  :|-------------------------------------|
B  :|-------------------------------------|
F# :|-77777777-77777777-00000000----------|
C# :|----------------------------22222222-|

Pre-outro: 2x            (    powerchord   )
D#:|----------------------------------------|
A#:|----------------------10101010-10101010-|
F :|-44444444-44444-99999-88888888-88888888-|
C :|----------------------------------------|
those are 10's nog 1-0's 

D#:|-------------------------------------|
A#:|-------------------------------------|
F :|-------------------33333333-33333333-|
C :|-55555555-55555555-------------------|

Outro: 2x
D#:|-------------------------------------|
A#:|-------------------------------------|
F :|-------------------33333333-33333333-|
C :|-55555555-55555555-------------------|

Post-outro:
D#:|-------------------|
A#:|-------------------|
F :|-4444442h4-5-5-5-5-|
C :|-------------------|

Something like that... 
If want to ask me anything, leave a comment or mail me; martijn_b_182@hotmail.com

            
            
Suggest correction
Creating personal tab
Creating personal tab
You can edit any tab online and save it as your Personal.

You can edit, replace or remove any tab part or add personal notes – all changes will be seen only by you.

Personal tabs can be accessed anytime from any device, even offline.
Learn more »
Give kudos to tab author, rate the tab!
1 2 3 4 5
comments
print report bad tab
guest
You may want to rate the tab now too:
select rating
Wanna post a correction for this tab? Suggest correction