Oops, an error
Loading. Please wait.

Hangin Tree tab

version 1
version 1

Whole song

Interactive

928 views 30 this week
no commentswrite comment
1 2 3 4 5
x 3
add to favorites
×
Save as Personal and add changes to this tab that will be seen only by you. Learn more ›
×
You can save this tab as Personal to edit and correct it or add notes. All changes will be seen only by you. Learn more »
launch autoscroll
font size
0
reset
how to read this tab
guitar tuner
edit
Autoscroll
slow
fast
+/-
esc
set tempo
stop
-------------------------------------------------------------------------------
                             HANGIN' TREE - Queens Of The Stone Age
-------------------------------------------------------------------------------
Tabbed by: tylersugarcarlo
E-mail: borntohula_00@yahoo.com

this is just the rhythm electric guitar part so ya'll can play it alone. 

Tuning: Standard

MAIN RIFF

e|-------------------|
B|-------------------|
G|-------------------|
D|-------------------|
A|--3p0-0-3p0-0-3-5--|
E|--5---5-5---5-5-5--| 4x


VERSE:

    Would                             You  
e|----------------------------------------------------------------------|
B|----------------------------------------------------------------------|
G|----------------------------------------------------------------------|
D|----------------------------------------------------------------------|
A|--3p0-0-3p0-0-3-3--3p0-0-3p0-0-3-3--3p0-0-3p0-0-3-3--3p0-0-3p0-0-3-3--|
E|--5---5-5---5-5-5--5---5-5---5-5-5--5---5-5---5-5-5--5---5-5---5-5-5--|

    Like                              A                Way            Home        
e|----------------------------------------------------------------------|
B|----------------------------------------------------------------------|
G|----------------------------------------------------------------------|
D|----------------------------------------------------------------------|
A|--3p0-0-3p0-0-3-3--3p0-0-3p0-0-3-3--2p0-0-2p0-0-2-2--6p0-0-6p0-0-6-6--|
E|--1---1-1---1-1-1--1---1-1---1-1-1--0---0-0---0-0-0--7---7-7---7-7-7--|

I Bleed My Own


CHORUS:

          'Round the Hangin' Tree           Swayin'     In the Breeze
           In the    Summer Sun             As We Two   Are One   
e|------------------------------------------------------------------------|
B|------------------------------------------------------------------------|
G|------------------------------------------------------------------------|
D|------------------------------------------------------------------------|
A|--7p0-0-7p0-0-7-7--6p0-0-6p0-0-6-6--9p0-0-9p0-0-9--9---7p0-0-7p0-0-7-7--|
E|--8---8-8---8-8-8--7---7-7---7-7-7--10-10-10-10-10-10--9---9-9---9-9-9--| 4x

          Swayin'  
e|----------------------------------------------------------------------|
B|----------------------------------------------------------------------|
G|----------------------------------------------------------------------|
D|----------------------------------------------------------------------|
A|--7p0-0-7p0-0-7-7--7p0-0-7p0-0-7-7--6p0-0-6p0-0-6-6--6p0-0-6p0-0-6-6--|
E|--8---8-8---8-8-8--8---8-8---8-8-8--7---7-7---7-7-7--7---7-7---7-7-7--|


VERSE II:
Can You See Under My Thumb?
There You Are


BRIDGE: (this part was a little hard to decipher because it's kind of drowned out in the mix, 
                                                                    but this is pretty close) 

e|--------------------------------------------|
B|--------------------------------------------|
G|--------------------------------------------|
D|------10-10-13------10-13---------12-12-10--|
A|-12\0----------12\0----------12\0-----------|
E|--------------------------11----------------|


And there you go.

************************************

| /   slide up
| \   slide down
| h   hammer-on
| p   pull-off
| ~   vibrato
| +   harmonic
| x   Mute note
| b   Bend
| pb  Pre-bend
| br  Bend release
| pbr Pre-bend release
| brb Bend release bend

************************************

            
            
Suggest correction
Creating personal tab
Creating personal tab
You can edit any tab online and save it as your Personal.

You can edit, replace or remove any tab part or add personal notes – all changes will be seen only by you.

Personal tabs can be accessed anytime from any device, even offline.
Learn more »
Give kudos to tab author, rate the tab!
1 2 3 4 5
comments
print report bad tab
guest
You may want to rate the tab now too:
select rating
Wanna post a correction for this tab? Suggest correction