Oops, an error
Loading. Please wait.

I Appear Missing bass

version 2
version 2

Whole song

Interactive

4,596 views 3 this week
no commentswrite comment
1 2 3 4 5
2 more votes to show rating
add to favorites
×
Save as Personal and add changes to this tab that will be seen only by you. Learn more ›
×
You can save this tab as Personal to edit and correct it or add notes. All changes will be seen only by you. Learn more »
launch autoscroll
font size
0
reset
guitar tuner
edit
Autoscroll
slow
fast
+/-
esc
set tempo
stop
Author
Not sure if they still play in C standard but there's no notes below the range of E 
standard in this so I did it in E for convenience.

This is the first 3 minutes of the song as heard in the video preview they released, 
I'll update it with the second half once the album is released.


Bass
     |--3-|       |--3-|  |--3-|     |--3-|  |--3-|  |--3-|
     Q    E  Q    Q    E  Q    E     Q    E  Q    E  Q    E  Q
G||----------------------------6--|--4----4-------x--4------------|
D||-------------------------------|-------------------------------|
A||--4------------4---------------|-------------------------------|
E||-------------------------------|-------------------------------|


  |--3-|       |--3-|  |--3-|     |--3--|  |--3-|  |--3-|
  Q    E  Q    Q    E  Q    E     E  E  E  Q    E  Q    E   Q
-------------------------------|---------------------------------|
----------------------------8--|---------------------------------|
--6------------6---------------|--7-----7-------x--7----7\--L----|
-------------------------------|---------------------------------|


  |--3-|       |--3-|  |--3-|     |--3-|  |--3--|  |--3-|  |--3-|
  Q    E  Q    Q    E  Q    E     Q    E  E  E  E  Q    E  Q    E
----------------------------6--|--4----4-----4--4--4---------------|
-------------------------------|--------------------------------7--|
--4------------4---------------|-----------------------------------|
-------------------------------|-----------------------------------|


  |--3-|       |--3-|  |--3-|     |--3--|  |--3-|  |--3--|
  Q    E  Q    Q    E  Q    E     E  E  E  Q    E  E  E  E  Q
-------------------------------|----------------------------------|
-------------------------------|----------------------------------|
--6------------6------------6--|----------------------------------|
-------------------------------|--7-----7-------7--5--5--5--4\----|


  |--3-|       |--3-|  |--3-|     |--3-|  |--3--|  |--3-|  |--3-|
  Q    E  Q    Q    E  Q    E     Q    E  E  E  E  Q    E  Q    E
----------------------------6--|--4----4-----4--4--4---------------|
-------------------------------|--------------------------------7--|
--4------------4---------------|-----------------------------------|
-------------------------------|-----------------------------------|


  |--3-|       |--3-|  |--3-|     |--3--|  |--3-|  |--3-|  |--3-|
  Q    E  Q    Q    E  Q    E     E  E  E  Q    E  Q    E  Q    E
-------------------------------|-----------------------------------|
-------------------------------|-----------------------------------|
--6------------6------------6--|--7-----7-------x--7----7----------|
-------------------------------|---------------------------7----9--|


           |--3-|  |--3-|     |--3-|  |--3--|  |--3-|  |--3-|
  H        Q    E  Q    E     Q    E  E  E  E  Q    E  Q    E
------------------------6--|--4----4-----4--4--4---------------|
---------------------------|--------------------------------7--|
-----------4---------------|-----------------------------------|
---------------------------|-----------------------------------|


  |--3-|       |--3-|  |--3-|     |--3--|
  Q    E  Q    Q    E  Q    E     E  E  E  H.
-------------------------------|-------------------------|
-------------------------------|-------------------------|
--6------------6------------6--|-------------------------|
-------------------------------|--7-----7--7\------------|


  |--3-|  |--3-|  |--3-|  |--3-|     |--3-|  |--3-|  |--3-|  |--3-|
  Q    E  Q    E  Q    E  Q    E     Q    E  Q    E  Q    E  Q    E
----------6---------------6-------|----------6---------------6-------|
--7----7-------7--7----7-------7--|--7----7-------7--7----7-------7--|
----------------------------------|----------------------------------|
----------------------------------|----------------------------------|


       |--3-|  |--3--|  |--3--|     |--3-|  |--3-|  |--3-|
  Q    Q    E  Q     E  Q     E     Q    E  Q    E  Q    E  Q
---------------------------------|-------------------------------|
--7----7----7--L----11--9----11--|-------------------------------|
---------------------------------|--9----9--L----7--9----7--9----|
---------------------------------|-------------------------------|


  |--3-|  |--3-|  |--3-|           |--3--|  |--3-|   |--3-|
  Q    E  Q    E  Q    E  Q        Q     E  Q    E   Q    E   Q
-------------------------------|-----------------------------------|
-------------------------------|-----------------------------------|
-------------------------------|-----------------------------------|
--9----9--L----7--9----7--9----|--11----11--L----9--11----9--11----|


         |--3--|   |--3--|  |--3--|     |--3-|  |--3-|  |--3-|
   Q     Q     E   Q     E  Q     E     Q    E  Q    E  Q    E  Q
------------------14-----------------|-------------------------------|
------------------------11--9----11--|-------------------------------|
--12----12----12---------------------|--9----9--L----7--9----7--9----|
-------------------------------------|-------------------------------|


  |--3-|  |--3-|  |--3-|           |--3--|  |--3-|   |--3-|
  Q    E  Q    E  Q    E  Q        Q     E  Q    E   Q    E   Q
-------------------------------|-----------------------------------|
-------------------------------|-----------------------------------|
-------------------------------|-----------------------------------|
--9----9--L----7--9----7--9----|--11----11--L----9--11----9--11----|


  |--3-|  |--3-|  |--3-|  |--3-|     |--3-|  |--3-|  |--3-|  |--3-|
  Q    E  Q    E  Q    E  Q    E     Q    E  Q    E  Q    E  Q    E
----------6---------------6-------|----------6---------------6-------|
--7----7-------7--7----7-------7--|--7----7-------7--7----7-------7--|
----------------------------------|----------------------------------|
----------------------------------|----------------------------------|


  |--3-|       |--3-|  |--3-|     |--3-|  |--3--|  |--3-|  |--3-|
  Q    E  Q    Q    E  Q    E     Q    E  E  E  E  Q    E  Q    E
----------------------------6--|--4----4-----4--4--4---------------|
-------------------------------|--------------------------------7--|
--4------------4---------------|-----------------------------------|
-------------------------------|-----------------------------------|


  |--3-|       |--3-|          |--3--|  |--3-|  |--3-|  |--3-|
  Q    E  Q    Q    E  Q       E  E  E  Q    E  Q    E  Q    E
----------------------------|-----------------------------------|
----------------------------|-----------------------------------|
--6------------6------------|--7-----7-------6--7----6----------|
----------------------------|---------------------------7----9--|


           |--3-|  |--3-|     |--3-|  |--3--|  |--3-|  |--3-|
  H        Q    E  Q    E     Q    E  E  E  E  Q    E  Q    E
------------------------6--|--4----4-----4--4--4---------------|
---------------------------|--------------------------------7--|
-----------4---------------|-----------------------------------|
---------------------------|-----------------------------------|


  |--3-|       |--3-|          |--3--|  |---3--|  |--3--|  |---3--|
  Q    E  Q    Q    E  Q       E  E  E  E  E   E  E  E  E  E  E   E
----------------------------|----------------------------------------|
----------------------------|--9-----9-----7h--9--7-----7-----6h--7--|
--6------------6------------|----------------------------------------|
----------------------------|----------------------------------------|


                 |--3-|     |--3-|  |--3--|  |--3-|  |--3-|
  H         Q    Q    E     Q    E  E  E  E  Q    E  Q    E
----------------------6--|--4----4-----4--4--4---------------|
-------------------------|--------------------------------7--|
-------------------------|-----------------------------------|
--9\---------------------|-----------------------------------|


  |--3-|       |--3-|          |--3--|  |--3-|  |--3-|  |--3-|
  Q    E  Q    Q    E  Q       E  E  E  Q    E  Q    E  Q    E
----------------------------|-----------------------------------|
----------------------------|-----------------------------------|
--6------------6------------|--7-----7-------6--7----6----------|
----------------------------|---------------------------7----9--|


  |--3-|       |--3-|  |--3-|     |--3-|  |--3--|  |--3-|  |--3-|
  Q    E  Q    Q    E  Q    E     Q    E  E  E  E  Q    E  Q    E
----------------------------6--|--4----4-----4--4--4---------------|
-------------------------------|--------------------------------7--|
--4------------4---------------|-----------------------------------|
-------------------------------|-----------------------------------|


  |--3-|       |--3-|          |--3--|  |---3--|  |--3-|
  Q    E  Q    Q    E  Q       E  E  E  E  E   E  Q    E  Q
----------------------------|----------------------------------|
----------------------------|--9-----9-----7h--9--7----7--6----|
--6------------6------------|----------------------------------|
----------------------------|----------------------------------|


  |--3-|       |--3-|  |--3-|     |--3-|  |--3--|  |--3-|
  Q    E  Q    Q    E  Q    E     Q    E  E  E  E  Q    E  Q
----------------------------6--|--4----4-----4--4--4------------|
-------------------------------|--------------------------------|
--4------------4---------------|--------------------------------|
-------------------------------|--------------------------------|


  |--3-|       |--3-|          |--3--|  |--3-|  |--3-|  |--3-|
  Q    E  Q    Q    E  Q       E  E  E  Q    E  Q    E  Q    E
----------------------------|-----------------------------------|
----------------------------|-----------------------------------|
--6------------6------------|--7-----7-------6--7----6----------|
----------------------------|---------------------------7----9--|


           |--3-|  |--3-|     |--3-|  |--3--|  |--3-|  |--3-|
  H        Q    E  Q    E     Q    E  E  E  E  Q    E  Q    E
------------------------6--|--4----4-----4--4--4---------------|
---------------------------|--------------------------------7--|
-----------4---------------|-----------------------------------|
---------------------------|-----------------------------------|


  |--3-|       |--3-|          |--3--|  |---3--|  |--3-|
  Q    E  Q    Q    E  Q       E  E  E  E  E   E  Q    E  Q
----------------------------|----------------------------------|
----------------------------|--9-----9-----7h--9--7----7--6----|
--6------------6------------|----------------------------------|
----------------------------|----------------------------------|


  |--3-|  |--3-|  |--3-|  |--3-|     |--3-|  |--3-|  |--3-|  |--3-|
  Q    E  Q    E  Q    E  Q    E     Q    E  Q    E  Q    E  Q    E
----------6---------------6-------|----------6---------------6-------|
--7----7-------7--7----7-------7--|--7----7-------7--7----7-------7--|
----------------------------------|----------------------------------|
----------------------------------|----------------------------------|


        |---3---|   |--3-|                |---3---|   |--3-|
  Q     Q       E   Q    E   Q       Q    Q       E   Q    E   Q
----------------------------------|---------------------------------|
--7-----L----9g11---L----9--11----|------------9g11---L----9--11----|
----------------------------------|--9----L-------------------------|
----------------------------------|---------------------------------|


       |---3---|   |--3-|           |--3-|  |---3--|  |--3-|
  Q    Q       E   Q    E   Q       Q    E  E  E   E  Q    E  Q
---------------------------------|---------------------------------|
------------9g11---L----9--11----|---------------------------------|
--7----L-------------------------|---------------------------------|
---------------------------------|--9----9--L--7h--9--9----9--7----|


        |---3---|   |--3-|                |---3---|   |--3-|
  Q     Q       E   Q    E   Q       Q    Q       E   Q    E   Q
----------------------------------|---------------------------------|
--7-----L----9g11---L----9--11----|------------9g11---L----9--11----|
----------------------------------|--9----L-------------------------|
----------------------------------|---------------------------------|


       |---3---|   |--3-|           |--3-|  |---3--|  |--3-|
  Q    Q       E   Q    E   Q       Q    E  E  E   E  Q    E  Q
---------------------------------|---------------------------------|
------------9g11---L----9--11----|---------------------------------|
--7----L-------------------------|---------------------------------|
---------------------------------|--9----9--L--7h--9--9----9--7----|


       |--3-|  |--3--|  |--3--|     |--3-|  |--3-|  |--3-|
  Q    Q    E  Q     E  Q     E     Q    E  Q    E  Q    E  Q
---------------------------------|-------------------------------|
--7----7----7--L----11--9----11--|-------------------------------|
---------------------------------|--9----9--L----7--9----7--9----|
---------------------------------|-------------------------------|


  |--3-|  |--3-|  |--3-|           |--3--|  |--3-|   |--3-|
  Q    E  Q    E  Q    E  Q        Q     E  Q    E   Q    E   Q
-------------------------------|-----------------------------------|
-------------------------------|-----------------------------------|
-------------------------------|-----------------------------------|
--9----9--L----7--9----7--9----|--11----11--L----9--11----9--11----|


         |--3--|   |--3--|  |--3--|     |--3-|  |--3-|  |--3-|
   Q     Q     E   Q     E  Q     E     Q    E  Q    E  Q    E  Q
------------------14-----------------|-------------------------------|
------------------------11--9----11--|-------------------------------|
--12----12----12---------------------|--9----9--L----7--9----7--9----|
-------------------------------------|-------------------------------|


  |--3-|  |--3-|  |--3-|           |--3--|  |--3-|   |--3-|
  Q    E  Q    E  Q    E  Q        Q     E  Q    E   Q    E   Q
-------------------------------|-----------------------------------|
-------------------------------|-----------------------------------|
-------------------------------|-----------------------------------|
--9----9--L----7--9----7--9----|--11----11--L----9--11----9--11----|


  |--3-|  |--3-|  |--3-|  |--3-|     |--3-|  |--3-|  |--3-|
  Q    E  Q    E  Q    E  Q    E     Q    E  Q    E  Q    E  Q
----------6---------------6-------|-------------------------------|
--7----7-------7--7----7-------7--|-------------------------------|
----------------------------------|-------------------------------|
----------------------------------|--9----9--L----7--9----7--9----|


   |--3--|  |--3-|   |--3-|           |--3-|  |--3-|  |--3-|  |--3-|
   Q     E  Q    E   Q    E   Q       Q    E  Q    E  Q    E  Q    E
-----------------------------------|----------6---------------6-------|
-----------------------------------|--7----7-------7--7----7-------7--|
-----------------------------------|----------------------------------|
--11----11--L----9--11----9--11----|----------------------------------|


  |--3-|  |--3-|  |--3-|  |--3-|     |--3--|   |---3--|  |--3--|   |---3--|
  Q    E  Q    E  Q    E  Q    E     E  E  E   E   E  E  E  E  E   E   E  E
----------6---------------6-------|--6-----6S--9S--6--6--6-----6S--9S--6--6--|
--7----7-------7--7----7-------7--|------------------------------------------|
----------------------------------|------------------------------------------|
----------------------------------|------------------------------------------|


  |--3--|   |---3--|  |--3--|   |---3--|
  E  E  E   E   E  E  E  E  E   E   E  E
--6-----6S--9S--6--6--6-----6S--9S--6--6--|
------------------------------------------|
------------------------------------------|
------------------------------------------|


  |--3--|   |---3--|  |--3--|   |---3--|
  E  E  E   E   E  E  E  E  E   E   E  E
--6-----6S--9S--6--6--6-----6S--9S--6--6--|
------------------------------------------|
------------------------------------------|
------------------------------------------|


  |--3--|   |---3--|  |--3--|   |---3--|
  E  E  E   E   E  E  E  E  E   E   E  E
--6-----6S--9S--6--6--6-----6S--9S--6--6--|
------------------------------------------|
------------------------------------------|
------------------------------------------|


  |--3--|   |---3--|  |--3--|   |---3--|
  E  E  E   E   E  E  E  E  E   E   E  E
--6-----6S--9S--6--6--6-----6S--9S--6--6--|
------------------------------------------|
------------------------------------------|
------------------------------------------|


  |--3--|   |---3--|  |--3--|   |---3--|
  E  E  E   E   E  E  E  E  E   E   E  E
--6-----6S--9S--6--6--6-----6S--9S--6--6--|
------------------------------------------|
------------------------------------------|
------------------------------------------|


  |--3--|   |---3--|  |--3--|   |---3--|
  E  E  E   E   E  E  E  E  E   E   E  E
--6-----6S--9S--6--6--6-----6S--9S--6--6--|
------------------------------------------|
------------------------------------------|
------------------------------------------|


  |--3--|   |---3--|  |--3--|   |---3--|
  E  E  E   E   E  E  E  E  E   E   E  E     Q     H.
--6-----6S--9S--6--6--6-----6S--9S--6--6--|---------------------|-------||
------------------------------------------|---------------------|-------||
------------------------------------------|---------------------|-------||
------------------------------------------|--9\-----------------|-------||




Duration Legend
---------------
W - whole
H - half
Q - quarter
E - 8th
S - 16th
T - 32nd
X - 64th
. - note dotted
|-n-|  - n-tuplets


Tablature Legend
----------------
L - tied note
x - dead note
g - grace note
(n) - ghost note
> - accentuded note
NH - natural harmonic
AH - artificial harmonic
TH - tapped harmonic
SH - semi harmonic
PH - pitch harmonic
h - hammer on
p - pull off
b - bend
br - bendRelease
pb - preBend
pbr - preBendRelease
brb - bendReleaseBend
\n/ - tremolo bar dip
\n - tremolo bar dive
-/n - tremolo bar Release up
/n\ - tremolo bar inverted dip
/n - tremolo bar return
-\n - tremolo bar Release down
S - shift slide
s - legato slide
/ -  slide into from below or out of upwards
\ -  slide into from above or out of downwards
~ - vibrato
W - wide vibrato
tr - trill
TP - tremolo picking
T - tapping
S - slap
P - pop
< - fade in
^ - brush up
v - brush down

            
            
Suggest correction
Creating personal tab
Creating personal tab
You can edit any tab online and save it as your Personal.

You can edit, replace or remove any tab part or add personal notes – all changes will be seen only by you.

Personal tabs can be accessed anytime from any device, even offline.
Learn more »
Give kudos to tab author, rate the tab!
1 2 3 4 5
comments
print report bad tab
guest
You may want to rate the tab now too:
select rating
Wanna post a correction for this tab? Suggest correction