Oops, an error
Loading. Please wait.

I Appear Missing bass

version 3
version 3

Whole song

Interactive

20,558 views 60 this week
2 commentsread comments
1 2 3 4 5
x 14
add to favorites
×
Save as Personal and add changes to this tab that will be seen only by you. Learn more ›
×
You can save this tab as Personal to edit and correct it or add notes. All changes will be seen only by you. Learn more »
launch autoscroll
font size
0
reset
guitar tuner
edit
Autoscroll
slow
fast
+/-
esc
set tempo
stop
Author
[Verse X2]
G|-----------6/4------------------------------6/4------------------------------|
D|-----------------------------------------------------------------------------|
A|--4-----4------22222-2/6--6/77-7/2---4----4-----22222-2/6--6-----------------|
E|-------------------------------------------------------------7-7--7--555-444-|

[Pre Chorus]
G|-----------------------------------------------------------------------------|
D|--------11-----------11-----------11-----------11----------------------------|
A|--12-12----12--12-12----12--12-12----12--12-12----12-------------------------|
E|-----------------------------------------------------------------------------|

[Chorus X2]
G|--------------13--------9h11-------------------------------------------------|
D|-----------------11----------------------------------------------------------|
A|--12-12-12-12-------12-------99-9-7h97h9-------------------------------------|
E|------------------------------------------9-99-7h97h9--11-11-11-11-12--------|

[Pre Verse]
G|-----------------------------------------------------------------------------|
D|--------11-----------11-----------11-----------11----------------------------|
A|--12-12----12--12-12----12--12-12----12--12-12----12-------------------------|
E|-----------------------------------------------------------------------------|

[Verse X3]
G|-----------6/4-------------------------------6/4-----------------------------|
D|-----------------------------------------------------------------------------|
A|--4-----4------22222-2/6--6/77-7/2---------4-----22222-2/6--6----------------|
E|-------------------------------------------------------------77-57-55-444----|

[Pre Chorus]
G|-----------------------------------------------------------------------------|
D|--------11-----------11-----------11-----------11----------------------------|
A|--12-12----12--12-12----12--12-12----12--12-12----12-------------------------|
E|-----------------------------------------------------------------------------| X2

G|-----------------------------------------------------------------------------|
D|-----11-9h11----11-9h11----11-9h11-------------------------------------------|
A|--12----------9----------7----------11-11-911-11-11-9------------------------|
E|-----------------------------------------------------------------------------|

[Chorus] X2
G|--------------13--------9h11-------------------------------------------------|
D|-----------------11----------------------------------------------------------|
A|--12-12-12-12-------12-------99-9-7h97h9-------------------------------------|
E|------------------------------------------9-99-7h97h9--11-11-9-11-12---------|

G|-----------------------------------------------------------------------------|
D|--------11-----------11------------------------------------------------------|
A|--12-12----12--12-12----12---------------------------------------------------|
E|-----------------------------9-99-7h97h9--11-11-9-11-12----------------------|

G|-----------------------------------------------------------------------------|
D|--------11-----------11-----------11-----------11----------------------------|
A|--12-12----12--12-12----12--12-12----12--12-12----12-------------------------|
E|-----------------------------------------------------------------------------|

[Breakdown]
G|-----------------------------------------------------------------------------|
D|---11-12-11-13-12-11-11-12-11-13-12-11--X?--11/------------------------------|
A|---------------------------------------------------66666-6/7777-9^-----------|
E|-----------------------------------------------------------------------------|

[Verse]
G|-----------6/4---------------------------------------------------------------|
D|-----------------------------------------------------------------------------|
A|--4-----4------22222-2/66666-6/7777-7/9^-------------------------------------|
E|-----------------------------------------------------------------------------|

G|---------6-9-6----13-------9-------------------------------------------------|
D|-------6-------6--------11----11---------------------------------------------|
A|----4----------------11--------------66666-6/7777-9--------------------------|
E|---------------------------------9-------------------------------------------|

G|---------6-9-6----13-------9-------------------------------------------------|
D|-------6-------6--------11----11---------------------------------------------|
A|----4----------------11--------------66666-----------------------------------|
E|---------------------------------9---------77-7-555-444----------------------|

[Pre Chorus]
G|-----------------------------------------------------------------------------|
D|--------11-----------11-----------11-----------11----------------------------|
A|--12-12----12--12-12----12--12-12----12--12-12----12-------------------------|
E|-----------------------------------------------------------------------------|

G|---------------------------9-------------------------------------------------|
D|-----11-9h11----11-9h11-----9h11--11-11-911-11-11-9--------------------------|
A|--12----------9----------7---------------------------------------------------|
E|-----------------------------------------------------------------------------|

G|--------------------------/11-9----------------------------------------------|
D|-----11-9h11----11-9h11---------11-------------------------------------------|
A|--12----------9----------7----------11-11-911-11-11-9------------------------|
E|-----------------------------------------------------------------------------|

[Chorus]
G|--------------13--------9h11-------------------------------------------------|
D|-----------------11----------------------------------------------------------|
A|--12-12-12-12-------12-------99-9-7h97h9-------------------------------------|
E|------------------------------------------9-99-7h97h9--11-11-9-11-12--X2-----|

G|-----------------------------------------------------------------------------|
D|--------11-----------11-----------11-----------11----------------------------|
A|--12-12----12--12-12----12--12-12----12--12-12----12-------------------------|
E|-----------------------------------------------------------------------------|

[Outro]
G|----------------------------------------------------11/13--------------------|
D|--------11----------11--------------7----------9h11--------------------------|
A|-12-12----12--12-12----12--99-9-7h9---9--7-9/11--------------------7----X4---|
E|-----------------------------------------------------------99-9-7h9--9-------|

G|----------------------------------------------------------------------|
D|-14-14-14-11-11-11--------------------------7---7---------------------|
A|------------------12-12-12-11-11-11-9-9-9-9--79--979------------------|
E|----------------------------------------------------------------------|

G|--------------11/13----------------------------------------------------------|
D|---------9h11----------------------------------------------------------------|
A|-7-9/11--------------------7-----Play until the end--------------------------|
E|-------------------99-9-7h9--9-----------------------------------------------|



************************************

| /  Slide up
| h  Hammer-on
| Play until the end 

************************************

            
            
Suggest correction
Creating personal tab
Creating personal tab
You can edit any tab online and save it as your Personal.

You can edit, replace or remove any tab part or add personal notes – all changes will be seen only by you.

Personal tabs can be accessed anytime from any device, even offline.
Learn more »
comments
print report bad tab
2 comments total.
0 reply
kregotitto 10 Jul 27, 2014 07:47 AM

Whats the tuning?

+1 reply
TheInfrareds 137 Aug 10, 2014 11:17 PM

It's in standard EADG tuning.

guest
You may want to rate the tab now too:
select rating
Wanna post a correction for this tab? Suggest correction