Oops, an error
Loading. Please wait.

I Never Came tab

version 2
version 2

Interactive

23,950 views 42 this week
3 commentsread comments
1 2 3 4 5
x 13
add to favorites
×
Save as Personal and add changes to this tab that will be seen only by you. Learn more ›
×
You can save this tab as Personal to edit and correct it or add notes. All changes will be seen only by you. Learn more »
launch autoscroll
font size
0
reset
how to read this tab
guitar tuner
backing track
0:00
0:00
edit
Autoscroll
slow
fast
+/-
esc
set tempo
stop
 Queens of the Stone Age
 I Never Came
 From the album "Lullabies to Paralyze"
 Tabbed by: sad_statue_27@hotmail.co.uk

 Guitar 1: Clean (Standard tuning)
 Guitar 2: Slightly overdriven (Standard tuning)

 Intro/Verse (fig. 1)

            Guitar 1 w/delay 
 e|---------|--------------------------|
 b|---------|--------------------------|
 g|--Drums--|--------------------------|
 d|---------|--9--9--9--9--9--9--9--9--|
 a|---------|--7--7--7--7--7--7--7--7--|
 e|---------|--------------------------|

 e|--------------------------|--------------------------|
 b|--------------------------|--------------------------|
 g|--------------------------|--------------------------|
 d|--7--7--7--7--7--7--7--7--|--7--7--7--7--7--7--7--7--|
 a|--4--4--4--4--4--4--4--4--|--5--5--5--5--5--5--5--5--|
 e|--------------------------|--------------------------|

 e|--------------------------|
 b|--------------------------|
 g|--------------------------|
 d|--------------------------|
 a|--5--5--5--5--5--5--5--5--|
 e|--3--3--3--3--3--3--3--3--|

 Chorus
    
    Guitar 1
 e|--0--0--0--0--0--0--0--0--|--0--0--0--0--0--0--0--0--|
 b|--0--0--0--0--0--0--0--0--|--0--0--0--0--0--0--0--0--|
 g|--9--9--9--9--9--9--9--9--|--9--9--9--9--9--9--9--9--|
 d|--9--9--9--9--9--9--9--9--|--9--9--9--9--9--9--9--9--|
 a|--7--7--7--7--7--7--7--7--|--7--7--7--7--7--7--7--7--|
 e|--------------------------|--------------------------|
        1.Why you gotta  shove     it    in    my    face_ 

 e|--0--0--0--0--0--0--0--0--|--0--0--0--0--0--0--0--0--|
 b|--0--0--0--0--0--0--0--0--|--0--0--0--0--0--0--0--0--|
 g|--5--5--5--5--5--5--5--5--|--5--5--5--5--5--5--5--5--|
 d|--5--5--5--5--5--5--5--5--|--5--5--5--5--5--5--5--5--|
 a|--3--3--3--3--3--3--3--3--|--3--3--3--3--3--3--3--3--|
 e|--------------------------|--------------------------|
     _     as if__  you   put____  me    in__  my    place_ 

 e|--0--0--0--0--0--0--0--0--|--0--0--0--0--0--0--0--0--|
 b|--0--0--0--0--0--0--0--0--|--0--0--0--0--0--0--0--0--|
 g|--2--2--2--2--2--2--2--2--|--2--2--2--2--2--2--2--2--|
 d|--2--2--2--2--2--2--2--2--|--2--2--2--2--2--2--2--2--|
 a|--0--0--0--0--0--0--0--0--|--0--0--0--0--0--0--0--0--|
 e|--------------------------|--------------------------|
     __               'Cos      I           don't 

 e|--0--0--0--0--0--0--0--0--|--0--0--0--0--0--0--0--0--|
 b|--0--0--0--0--0--0--0--0--|--0--0--0--0--0--0--0--0--|
 g|--9--9--9--9--9--9--9--9--|--9--9--9--9--9--9--9--9--|
 d|--9--9--9--9--9--9--9--9--|--9--9--9--9--9--9--9--9--|
 a|--7--7--7--7--7--7--7--7--|--7--7--7--7--7--7--7--7--|
 e|--------------------------|--------------------------|
 /                                                       \
 \   Guitar 2                                            / 
 e|-----0-----0-----0-----0--|-----0-----0-----0-----0--|
 b|--7-----7-----8-----8-----|--8-----8-----8-----8-----|
 g|--------------------------|--------------------------|
 d|--------------------------|--------------------------|
 a|--------------------------|--------------------------|
 e|--------------------------|--------------------------|
     care  if you_     or me________  is right__ or  wrong


 e|--0--0--0--0--0--0--0--0--|--0--0--0--0--0--0--0--0--|
 b|--0--0--0--0--0--0--0--0--|--0--0--0--0--0--0--0--0--|
 g|--9--9--9--9--9--9--9--9--|--9--9--9--9--9--9--9--9--|
 d|--9--9--9--9--9--9--9--9--|--9--9--9--9--9--9--9--9--|
 a|--7--7--7--7--7--7--7--7--|--7--7--7--7--7--7--7--7--|
 e|--------------------------|--------------------------|
/                                                        \ 
\                                                        /  
 e|-----0-----0-----0-----0--|-----0-----0-----0-----0--|
 b|--7-----7-----8-----8-----|--7-----7-----8-----8-----|
 g|--------------------------|--------------------------|
 d|--------------------------|--------------------------|
 a|--------------------------|--------------------------|
 e|--------------------------|--------------------------|
        Ain't gon  -  na  spend_____  a- nother___   night_

 e|--0--0--0--0--0--0--0--0--|--0--0--0--0--0--0--0--0--|
 b|--0--0--0--0--0--0--0--0--|--0--0--0--0--0--0--0--0--|
 g|--5--5--5--5--5--5--5--5--|--5--5--5--5--5--5--5--5--|
 d|--5--5--5--5--5--5--5--5--|--5--5--5--5--5--5--5--5--|
 a|--3--3--3--3--3--3--3--3--|--3--3--3--3--3--3--3--3--|
 e|--------------------------|--------------------------|
/                                                        \
\                                                        /
 e|------0-----0-----0----0--|------0-----0-----0----0--|
 b|--10----10----10----10----|--10----10----10----10----|
 g|--------------------------|--------------------------|
 d|--------------------------|--------------------------|
 a|--------------------------|--------------------------|
 e|--------------------------|--------------------------|
                       in                   your

 e|--0--0--0--0--0--0--0--0--|--0--0--0--0--0--0--0--0--|
 b|--0--0--0--0--0--0--0--0--|--0--0--0--0--0--0--0--0--|
 g|--2--2--2--2--2--2--2--2--|--2--2--2--2--2--2--2--2--|
 d|--2--2--2--2--2--2--2--2--|--2--2--2--2--2--2--2--2--|
 a|--0--0--0--0--0--0--0--0--|--0--0--0--0--0--0--0--0--|
 e|--------------------------|--------------------------|
/                                                        \
\                                                        /
 e|-----0-----0-----0-----0--|--0--0--0--0--0--0--0--0--|
 b|--12----12----12----12----|--15-15-15-15-17-17-17-17-|
 g|--------------------------|--------------------------|
 d|--------------------------|--------------------------|
 a|--------------------------|--------------------------|
 e|--------------------------|--------------------------|
     bed___________             in          your 
 
  
  Interlude (Guitar 1 plays fig. 1)

     Guitar 2                                              
 e|----------------------------|--------------------------||
 b|----------------------------|--------------------------||
 g|--------------------------7-p-6------------------------||
 d|-------------7--9-p-7--9----|----9-p-7--9-----9-----9--||
 a|--7--9-/-10-----------------|-------------10-----9-----||
 e|----------------------------|--------------------------||
 
 e|----------------------------|--------------------------|
 b|----------------------------|--------------------------|
 g|--------------------------7-p-6------------------------|
 d|-------------7--9-p-7--9----|----9-p-7--9-----9-----9--|
 a|--7--9-/-10-----------------|-------------10-----9-----|
 e|----------------------------|--------------------------|
                                                            
 e|----------------------------|--------------------------|
 b|--------------------------8-|-7------------------------|
 g|----------------------------|----9--7--9-----7---------|
 d|-------------7--9-p-7--9----|-------------9---------9--|
 a|--7--9-/-10-----------------|-------------------10-----|
 e|----------------------------|--------------------------|
 
  
  Outro (Guitar 1 plays fig. 1)                              
 
      Guitar 2                                             
 e||--------------------------|------------------------------|
 b||--------------------------|------------------------------|
 g||--------------------------|------------------------------|
 d||--------------------------|------------------------------|
 a||--7--7--7--7--7--7--9--9--|--10--10--10--10--9--9--9--9--|
 e||--------------------------|------------------------------|
      Ah___________________________________________________   
                                                          
 e|------------------------------|--------------------------||
 b|------------------------------|--------------------------||
 g|------------------------------|--------------------------||
 d|--7--7--7--7------------------|--9--9--9--9--7--7--7--7--||
 a|--------------10--10--10--10--|--------------------------||
 e|------------------------------|--------------------------||
     ______________________________________________________
   
 e|--0--|
 b|--0--|
 g|--9--|
 d|--9--|
 a|--7--|
 e|--0--|

 / slide
 
 p pull-off
 
 || repeat bars

            
            
Suggest correction
Creating personal tab
Creating personal tab
You can edit any tab online and save it as your Personal.

You can edit, replace or remove any tab part or add personal notes – all changes will be seen only by you.

Personal tabs can be accessed anytime from any device, even offline.
Learn more »
comments
print report bad tab
3 comments total. show 1 bad comment
+1 reply
albooga 10 Jun 10, 2009 11:32 AM

Some may find it easier to play the interlude as follows:

e|------------------------------------------------------||
b|-------------------3-2--------------------------------||
g|----------2-4-2-4-----4-2-4-2-----4-4-----------------||
d|----2-4-h5-----------------------5-4------------------||
a|------------------------------------------------------||
e|------------------------------------------------------||

e|--------------------3-2-------------------------------||
b|-----------------------5-3-5--3-----------------------||
g|----------2-4-2-4------------4----4-------------------||
d|----2-4-h5--------------------------------------------||
a|---------------------------------5--------------------||
e|------------------------------------------------------||

-1 reply
Lykke 31 Jan 17, 2010 06:49 AM

Some may find it easier to play the intro as following:

e|---------|--------------------------|
b|---------|--------------------------|
g|--Drums--|--4-4-4-4-4-4-4-----------|
d|---------|--2-2-2-2-2-2-2-----------|
a|---------|--------------------------|
e|---------|--------------------------|

e|------------------------------------------------|
b|------------------------------------------------|
g|--2-2-2-2-2-2-2-0-0-0-0-0-0-0-0-0-0-0-0-0-0-----|
d|--2-2-2-2-2-2-2-2-2-2-2-2-2-2-0-0-0-0-0-0-0-----|
a|------------------------------------------------|
e|------------------------------------------------|

guest
You may want to rate the tab now too:
select rating
Wanna post a correction for this tab? Suggest correction