Oops, an error
Loading. Please wait.

I Sat By The Ocean tab

version 2
version 2

Whole song

Interactive

24,757 views 30 this week
2 commentsread comments
1 2 3 4 5
x 10
add to favorites
×
Save as Personal and add changes to this tab that will be seen only by you. Learn more ›
×
You can save this tab as Personal to edit and correct it or add notes. All changes will be seen only by you. Learn more »
launch autoscroll
font size
0
reset
how to read this tab
guitar tuner
backing track
0:00
0:00
edit
Autoscroll
slow
fast
+/-
esc
set tempo
stop
Author
Difficulty
Queens of The Stone Age - I Sat By The Ocean

Standard Tuning

Intro

Guitar 1 (rythm part)
e|--------------------------------------------------------|
B|--------------------------------------------------------|
G|--------------------------------------------------------|
D|--6-6--4-6-6--4-6-6--4-6--------------------------------|
A|--6-6--4-6-6--4-6-6--4-6---------x1-----then------------|
E|--4-4--2-4-4--2-4-4--2-4--------------------------------|

e|---------------------------------------------------------------------|
B|---------------------------------------------------------------------|
G|---------------------------------------------------------------------|
D|--6-6--4-6-6--4-6-6--6-8-8/9-9--9-9-9--9-4-4--4-4-4-7-7-6-6--6-6-6---|
A|--6-6--4-6-6--4-6-6--6-8-8/9-9--9-9-9--9-4-4--4-4-4-7-7-6-6--6-6-6---|
E|--4-4--2-4-4--2-4-4--4-6-6/7-7--7-7-7--7-2-2--2-2-2-5-5-4-4--4-4-4---|

e|------------------------------------------------------------------------|
B|------------------------------------------------------------------------|
G|--------------------------6-6---6-6-6--6--------------------------------|
D|--6-6-4-4-2-2-2--2-2-2--2-6-6---6-6-6--6-6-6--6-6-6--6-6-6--6-6-6--6-6--|
A|--6-6-4-4-2-2-2--2-2-2--2-4-4---4-4-4--4-6-6--6-6-6--6-6-6--6-6-6--6-6--|
E|--4-4-2-2-0-0-0--0-0-0--0----------------4-4--4-4-4--4-4-4--4-4-4--4-4--|


Guitar 2 (play with a slide bar if you can)
e|------------------------------------------------------------------|
B|------------------------------------------------------------------|
G|--11/13/11/13/11-8-8----11/13/11---8/6/4----/8-13-6--8/9--8/6/5/8-|
D|------------------------------------------------------------------|
A|------------------------------------------------------------------|
E|------------------------------------------------------------------|

e|----------------------------------------------------------|
B|-------------9/12/9---------------9-----------------------|
G|------6/8/11----------11/13---6/8---8/6/4/13--------------|
D|--6/9-----------------------------------------------------|
A|----------------------------------------------------------|
E|----------------------------------------------------------|

Verse I (repeat rythm part)

I sat by the ocean and drank a potion baby to erase you
Face down in the Boulevard, yet I couldn’t face you

There ain’t no use in crying It doesn’t change anything,
so baby what good does it do?
Your friends they all said that that’s, maybe, I don’t need them too.

Chorus
e|------------------------------------------------|
B|------------------------------------------------|
G|---8-9-8-9-1113--6-6-6--------------------------|
D|-----------------6-6-6--6-6-6--(x2)-------------|
A|---6-7-6-7-9-11--4-4-4--6-6-6-------------------|
E|------------------------4-4-4-------------------|
I said that I’d be your one and only
instead of a rolling one

e|-----------------------------------------------------------------------------------|
B|-----------------------------------------------------------------------------------|
G|--9--9-9-9-9-9--11-1111111111-13--13-13-13-13-13--13--13-13-13-13-13---------------|
D|-----------------------------------------------------------------------------------|
A|--7--7-7-7-7-7--9--9-9-9-9-9--11--11-11-11-11-11--11--11-11-11-11-11---------------|
E|-----------------------------------------------------------------------------------|
        You. Me. and a lie.

e|-------------------------------------------------------------------------|
B|-------------------------------------------------------------------------|
G|--6--6-6-6-6-6---3--3-3-3-3-3--5--5-5-5-5-5-9-9-9-9-9-9-9-9--------------|
D|-------------------------------------------------------------------------|
A|--4--4-4-4-4-4---1--1-1-1-1-1--3--3-3-3-3-3-7-7-7-7-7-7-7-7--------------|
E|-------------------------------------------------------------------------|
Silence is closer.
We’re passing ships in the night.

bridge to Verse II Guitar 1 (rythm part)
e|---------------------------------------------------|
B|---------------------------------------------------|
G|---------------------------------------------------|
D|--6-6--4-6-6--4-6-6--4-6---------------------------|
A|--6-6--4-6-6--4-6-6--4-6-----x1-----then-----------|
E|--4-4--2-4-4--2-4-4--2-4---------------------------|

Verse II Intro Guitar 2 (Guitar 1 is the same as intro)
e|------------------------------------------------------------------|
B|------------------------------------------------------------------|
G|--11/13/11/13/11-8-8----11/13/11---8/6/4----/8-13-6--8/9--8/6/5/8-|
D|------------------------------------------------------------------|
A|------------------------------------------------------------------|
E|------------------------------------------------------------------|

e|------------------------------------------|
B|------------------------------------------|
G|--/9-8----/13-11---6/4---6/8-6--6/5-------|
D|------------------------------------------|
A|------------------------------------------|
E|------------------------------------------|

Verse II (same as verse I)

There’s nowhere to run away.
Said, “boy if you want love, you’ll have to go & find it with someone new.”
“do you know who you really are? are you sure it’s really you?”

Lies are a funny thing.
They slip through your fingertips because they never happened to you.
Time wounds all the heals. Then we fade out of view.


repeat Chorus

I said that I’d be your one and only
instead of a rolling one

You. Me. and a lie.
Silence is closer.
We’re passing ships in the night.

You. Me. and a lie.
Silence is closer.
We’re passing ships in the night.

e|-------------------------------------------------|
B|-------------------------------------------------|
G|--5--5-5-5-5-5-9-9-9-9-9-9-9-9-------------------|
D|---------------------------------(x2)------------|
A|--3--3-3-3-3-3-7-7-7-7-7-7-7-7-------------------|
E|-------------------------------------------------|
End to the night, left with nowhere to hide.

e|----------------------------------------------------------|
B|----------------------------------------------------------|
G|--13-13-13-119-9-9-9-1111119-8-8-8-8----------------------|
D|----------------------------------------(x4)--------------|
A|--11-11-11-9-7-7-7-7-9-9-9-7-6-6-6-6----------------------|
E|----------------------------------------------------------|

e|-------------------------------------------------------------------------|
B|-------------------------------------------------------------------------|
G|--6--6-6-6-6-6---3--3-3-3-3-3--5--5-5-5-5-5-9-9-9-9-9-9-9-9--------------|
D|-------------------------------------------------------------------------|
A|--4--4-4-4-4-4---1--1-1-1-1-1--3--3-3-3-3-3-7-7-7-7-7-7-7-7--------------|
E|-------------------------------------------------------------------------|

Closer…
and closer…
We’re crashing ships in the night

            
            
Suggest correction
Creating personal tab
Creating personal tab
You can edit any tab online and save it as your Personal.

You can edit, replace or remove any tab part or add personal notes – all changes will be seen only by you.

Personal tabs can be accessed anytime from any device, even offline.
Learn more »
comments
print report bad tab
2 comments total.
0 reply
Haitch 188 Jul 02, 2013 08:11 PM

Check my Version 3.
I've ironed out a few issues such as-
-Legato in the slide sections (Strike first note only)
-The sliding 6 string major barre chords in the verse and the the lovely bend and release bit.
-The chorus. I followed the bass and now it sounds right.
Haitch.

0 reply
f.andrades.p 10 Jul 17, 2013 09:43 PM

Hey buddies, I managed to get the chorus right:

e|--4-4-4-4-4-4-------------4-4-4-4-4-4-0-0-0-0-0-0---|
B|--5-5-5-5-5-5-2-2-2-2-2-2-4-4-4-4-4-4-0-0-0-0-0-0---|
G|--6-6-6-6-6-6-3-3-3-3-3-3-5-5-5-5-5-5-1-1-1-1-1-1---|
D|--6-6-6-6-6-6-4-4-4-4-4-4-6-6-6-6-6-6-2-2-2-2-2-2---|
A|--4-4-4-4-4-4-1-1-1-1-1-1-6-6-6-6-6-6-2-2-2-2-2-2---|
E|--------------------------4-4-4-4-4-4-0-0-0-0-0-0---|


And then it goes E, F#,G#

You're welcome!

guest
You may want to rate the tab now too:
select rating
Wanna post a correction for this tab? Suggest correction