Oops, an error
Loading. Please wait.

I Think I Lost My Headache bass

version 2
version 2

Whole song

Interactive

5,584 views 9 this week
1 commentread comment
1 2 3 4 5
x 5
add to favorites
×
Save as Personal and add changes to this tab that will be seen only by you. Learn more ›
×
You can save this tab as Personal to edit and correct it or add notes. All changes will be seen only by you. Learn more »
launch autoscroll
font size
0
reset
guitar tuner
backing track
0:00
0:00
edit
Autoscroll
slow
fast
+/-
esc
set tempo
stop
INTRO
Eb---------------------|
Bb----7\-----7\------7-|
 F-----------------8---| Repeat
 C-5------5------5-----|

  ...end on.
Eb--------|
Bb--------|
 F--------|
 C-5~~~~~-|

VERSE
Eb----------|
Bb----5-----|
 F-5h7-7----|
 C------5-8-|

Eb-------------------------|
Bb----7-7---5--7-----5-----|
 F-------7--------5h7-7----| Repeat
 C-5~------------------5-8-|

Eb-------------------|
Bb----7-7---5--7-8~~-|
 F-------7-----------|
 C-5~----------------|

CHORUS
Eb---------------|
Bb---77--55---54-|
 F-----7---7-5---| Repeat
 C-5~------------|

Eb----------------|
Bb---77--5--7-8~~-|
 F-----7----------|
 C-5~-------------|

VERSE 2
Eb-------------|
Bb-5-------5-5-|
 F---7-5-7-----|
 C-------------|

Eb-------------------------|
Bb----7-7---5--7-----5-----|
 F-------7--------5h7-7----| Repeat
 C-5~------------------5-8-|

Eb-------------------|
Bb----7-7---5--7-8~~-|
 F-------7-----------|
 C-5~----------------|

CHORUS 2
Eb---------------|
Bb---77--55---54-|
 F-----7---7-5---| Repeat
 C-5~------------|

Eb--------------------|
Bb---77--5--7-8~~~~~~-|
 F-----7--------------|
 C-5~-----------------|

OUTRO
Eb---------------------|
Bb----7\-----7\------7-|
 F-----------------8---| Repeat many times
 C-5------5------5-----|

Eb------------------------------|
Bb---13--11------11--10---------|
 F-12------12--10------12----12-| Swich between the two
 C-------------------------12---|   when the changes occur.


This is my first tab. I was bored and figured i'd throw this up here.
Hope it dosn't suck too much. I didn't tab the fills in the verses because mine are 
the same and if you make your own it's more personal.

            
            
Suggest correction
Creating personal tab
Creating personal tab
You can edit any tab online and save it as your Personal.

You can edit, replace or remove any tab part or add personal notes – all changes will be seen only by you.

Personal tabs can be accessed anytime from any device, even offline.
Learn more »
comments
print report bad tab
1 comment total.
0 reply
kahlgrim 52 Jan 20, 2014 10:42 AM

good tab!

I think there is just one note in the outro that sounds better like this:

Eb------------------------------|
Bb---13--11------11--10---------|
F-12------12--10------12----12-| Swich between the two
C-------------------------13---| when the changes occur.

guest
Wanna post a correction for this tab? Suggest correction