Oops, an error
Loading. Please wait.
We have Chord Pro version of I Wanna Make It Wit Chu.
It's the closest thing you can get to the original song and it has interactive parts. Check out the tab »
×
107,533 views 90 this week
11 commentsread comments
1 2 3 4 5
x 41
add to favorites
×
Save as Personal and add changes to this tab that will be seen only by you. Learn more ›
×
You can save this tab as Personal to edit and correct it or add notes. All changes will be seen only by you. Learn more »
launch autoscroll
font size
0
reset
how to read this tab
guitar tuner
edit
Autoscroll
slow
fast
+/-
esc
set tempo
stop
Author
Queens of the Stone Age – I wanna Make it Wit Chu

As heard on Era Vulgaris

*updated with intro

I’m pretty sure this is how Josh plays it.

Standard Tuning.
Use a nice vintage, treble-y tone.


[Intro] Harmonics

        +    +   +   +    +    +   +   +   
e|------12-----------12----------------------------------------------------|
B|------------------------12-----------12----------------------------------|
G|---------------5-----------------7---------------------------------------|
D|-----------5-----------------7-------------------------------------------|
A|-------------------------------------------------------------------------|
E|-------------------------------------------------------------------------|

Intro solo

e|-------------------------------------------------------------------------|
B|-------------------------------------------------------------------------|
G|-------------------------------------------------------------------------|
D|------5------5--7--7b~--5-7-7b~~---------5-----------------------7brbrbr~|
A|--5-7---7~---------------------------5-7---7---5-7---5-7-----/7----------|
E|---------------------------------------------------7-------3-------------|


[Main Solo]

e|----------------------------------------10b------------------------------|
B|-8-10-10-10-10-10-10-8-10-8~~---8-10---8----10b-----8-10b-8-10-----------|
G|------------------------------------9--------------------------9~~-7-9b~~|
D|-------------------------------------------------------------------------|
A|-------------------------------------------------------------------------|
E|-------------------------------------------------------------------------|

e|-------------------------------------------------------------------------|
B|-------------------------------------------------------------------------|
G|----9b-7-9---------------------------------------------------------------|
D|-------------5-7-7brp5---5-----------7b-7b-5---7p5---5---------5---7-5---|
A|-----------7-----------7-------5-7-----------------7---7---5-7-----------|
E|-------------------------------------------------------------------------|

e|-------------------------------------------------------------------------|
B|---------------------------------------------------8---------------------|
G|-------------------------7-9---------------7---7-9-----9-9b-9~~~---------|
D|--7b-5-7---5-------5-7s9-----7s5-7---5-7s9---9---------------------------|
A|---------7---7-5-7-----------------7-------------------------------------|
E|-------------------------------------------------------------------------|

e|-------------------------------------------------------------------------|
B|--7h8p7---7--------------------------------------------------------------|
G|--------9---9-7~---9p7---7~----------------------------------------------|
D|-----------------------9-----7s5-7s9~------------------------------------|
A|--------------------------------------7p5h7~---5-7----/7-----------------|
E|----------------------------------------------------3--------------------|

e|---------------------7-10-7--------7-----7-------------------------------|
B|-------------------8--------8------10b11-10b12~~-----10b--10-8-10---8~---|
G|-----------------9------------9~~------------------9--------------9---9~-|
D|--(5)------5-9~----------------------------------------------------------|
A|-----(7)-7---------------------------------------------------------------|
E|-------------------------------------------------------------------------|

e|-------------------------------------------------------------------------|
B|--10-----10-----10-------------------------------------------------------|
G|-----9~~----9~~----9~~---------------------------------------------------|
D|-------------------------------------------------------------------------|
A|-------------------------------------------------------------------------|
E|-------------------------------------------------------------------------|


**************************************************

| /  slide up
| \  slide down
| h  hammer-on
| p  pull-off
| ~  vibrato
| +  natural harmonic
| x  Mute note

**************************************************

            
            
Suggest correction
Creating personal tab
Creating personal tab
You can edit any tab online and save it as your Personal.

You can edit, replace or remove any tab part or add personal notes – all changes will be seen only by you.

Personal tabs can be accessed anytime from any device, even offline.
Learn more »
comments
print report bad tab
11 comments total. Showing first comments. show 2 bad comments
+1 reply
gitaargast 51 May 03, 2009 12:46 AM

Nice

guest
You may want to rate the tab now too:
select rating
Wanna post a correction for this tab? Suggest correction