Oops, an error
Loading. Please wait.

Keep Your Eyes Peeled bass

version 1
version 1

Whole song

Interactive

1,886 views 27 this week
no commentswrite comment
1 2 3 4 5
2 more votes to show rating
add to favorites
×
Save as Personal and add changes to this tab that will be seen only by you. Learn more ›
×
You can save this tab as Personal to edit and correct it or add notes. All changes will be seen only by you. Learn more »
launch autoscroll
font size
0
reset
guitar tuner
backing track
0:00
0:00
edit
Autoscroll
slow
fast
+/-
esc
set tempo
stop
Author
-------------------------------------------------------------------------------
                             Keep Your Eyes Peeled                             
                            Queens of the Stone Age                           
-------------------------------------------------------------------------------
Tabbed by: JimbobJeffers

Tuning: C Standard

KEY
+ = Beat
r = Rest
/ = Slide up
\ = Slide down

NOTE: It's probably easier to play the notes on the Bb and F strings on the C string instead, by transposing,
      however I've written it this way to keep the widths at an equal scale.



Intro [0:26]
   +     +     +     +      +     +     +     +      
Eb|------------------------|------------------------|
Bb|------------------------|------------------------|
 F|------------------------|------------------------| x2
 C|0---0-----0-0---0-----0-|----0-----0-r-----------|


Part 1 [0:40] - Ten times with End 1, 2, 1, 3, 1, 4, 1, 3, 4, 3
                                ________ End 1 _________
Eb|------------------------|   |------------------------|
Bb|------------------------|   |------------------------|
 F|------------------------|   |------------------------|
 C|0---0-----0-0---0-----0-|   |----0-----0-r-----------|
 
   ________ End 2 _________ ________ End 3 _________ ________ End 4 _________
Eb|------------------------|------------------------|------------------------|
Bb|------------------------|--------------5-5-r-4-4-|--------------5-5-r-8-8-|
 F|------------------------|------------------------|------------------------|
 C|----0-----0-r-3-3-r-6-6-|----0-----0-r-----------|----0-----0-r-----------|

 
Part 2 [1:48]
   +     +      +     +     +     +             +     +     
Eb|------------|------------------------|      |------------|
Bb|--- Rest ---|------------------------|      |--- Rest ---|
 F|------------|------------------------| x3   |------------|
 C|------------|0---0-----0-0---0-----0-|      |------------|


Play the following bar three times with End 1, 2, 3
                                ________ End 1 _________
Eb|------------------------|   |------------------------|
Bb|------------------------|   |------------------------|
 F|------------------------|   |------------------------|
 C|0---0-----0-0---0-----0-|   |----0-----0-r-----------|
 
   ________ End 2 _________ ________ End 3 _________
Eb|------------------------|------------------------|
Bb|--------------5-5-r-4-4-|--------------5-5-r-8-8-|
 F|------------------------|------------------------|
 C|----0-----0-r-----------|----0-----0-r-----------|
 

   +     +     +     +             +     +     +     +      +     +     +     +      
Eb|------------------------|      |------------------------|------------------------|
Bb|--------- Rest ---------|      |------------------------|--------- Rest ---------|
 F|------------------------| x6   |------------------------|------------------------|
 C|------------------------|      |0~----------------------|------------------------|

   +     +      +     +     +     +             +     +     
Eb|------------|------------------------|      |------------|
Bb|--- Rest ---|------------------------|      |--- Rest ---|
 F|------------|------------------------| x3   |------------|
 C|------------|0---0-----0-0---0-----0-|      |------------|


Interlude [3:10]
   +     +     +     +      
Eb|------------------------|
Bb|------------------------|
 F|--9---9---9-9\----------| x4
 C|------------------------|


Part 3 [3:17]
   +     +     +     +             +     +     +     +     
Eb|------------------------|      |----------1-3-----1-----|
Bb|------------2-----------|      |------1-3-----------3-1-|
 F|------2-5-2-------5-2-0-| x4   |------------------------| x4
 C|2-----------------------|      |3-----------------------|

Eb|------------------------|      |------------------------|
Bb|------------2-----------|      |------------5---2-------|
 F|------2-5-2-------5-2-0-| x3   |------2-5-2-------5-2-0-|
 C|2-----------------------|      |2-----------------------|

Eb|----------1-3-----1-----|      |------------------------|
Bb|------1-3-----------3-1-|      |------------------------|
 F|------------------------| x3   |1-----------4-----------|
 C|3-----------------------|      |------------------------|

Eb|------------------------|      |------------------------|
Bb|------------2-----------|      |------------------------|
 F|------2-5-2-------5-2-0-| x4   |--9---9---9-9\----------| x3
 C|2-----------------------|      |------------------------|
 
Eb|------------------------|------------------------|
Bb|------------------------|--------- Rest ---------|
 F|--9---9---9-10/---------|------------------------|
 C|------------------------|------------------------|


Part 4 [3:57] - Four times with End 1, 2, 1, 2
                                ________ End 1 _________ ________ End 2 _________
Eb|------------------------|   |------------------------|------------------------|
Bb|------------------------|   |--------------5-5-r-4-4-|--------------5-5-r-8-8-|
 F|------------------------|   |------------------------|------------------------|
 C|0---0-----0-0---0-----0-|   |----0-----0-r-----------|----0-----0-r-----------|

            
            
Suggest correction
Creating personal tab
Creating personal tab
You can edit any tab online and save it as your Personal.

You can edit, replace or remove any tab part or add personal notes – all changes will be seen only by you.

Personal tabs can be accessed anytime from any device, even offline.
Learn more »
Give kudos to tab author, rate the tab!
1 2 3 4 5
comments
print report bad tab
guest
You may want to rate the tab now too:
select rating
Wanna post a correction for this tab? Suggest correction