Oops, an error
Loading. Please wait.
We have an official My God Is The Sun tab made by UG professional guitarists. Check out the tab »
×

My God Is The Sun tab

version 3
version 3

Whole song

Interactive

12,623 views 12 this week
1 commentread comment
1 2 3 4 5
x 10
add to favorites
×
Save as Personal and add changes to this tab that will be seen only by you. Learn more ›
×
You can save this tab as Personal to edit and correct it or add notes. All changes will be seen only by you. Learn more »
launch autoscroll
font size
0
reset
how to read this tab
guitar tuner
backing track
0:00
0:00
edit
Autoscroll
slow
fast
+/-
esc
set tempo
stop
Author
Difficulty
My God Is The Sun
New Song From  Like ClockWork
Standard tuning (EADGBE)
Time Sig: 3/4
Have Fun


INTRO

Lead Guitar

Shakers Begin   then...              This Bar X6
e|---------------------------|---------------------------|           
B|---------------------------|---------------------------|        
G|---------------------------|---------------------------|        
D|------------------------2--|--5-5-5-5-2-------------2--|        
A|----------------------2----|------------2---------2----|        
E|---------------------------|--------------0-0-0-0------|      

e|---------------------------|---------------------------|  
B|---------------------------|---------------------------|
G|---------------------------|---------------------------|
D|--5-5-5-5-2-----------2----|------------2-5-5-5-5-5-5--|
A|------------2-----------2--|--0-0-0-2-5----------------|
E|--------------0-0-0-0------|---------------------------|

e|---------------------------|           
B|---------------------------|        
G|---------------------------|        
D|--4-4-4-4-4-4-4-4-4-4-4-4--|       
A|---------------------------|        
E|---------------------------|    

Second Guitar
                                       This Bar X4
e|---------------------------|---------------------------|           
B|---------------------------|---------------------------|        
G|---------------------------|---------------------------|        
D|---------------------------|----------2----------------|        
A|---------------------------|------------2-2-2-2-2------|        
E|---------------------------|--------------0-0-0-0------|    

Third Guitar (Comes in after second has finished)
e|---------------------------|           
B|---------------------------|        
G|--4-4-4-4------------------|       
D|----------5-2---------2-5--|       X2 
A|--------------2-2-2-2------|        
E|---------------------------|

e|---------------------------|---------------------------|             
B|----------------------5----|----------3-5-8-8-8-8-8-8--|          
G|--4-4-4-4---------------4--|--2-2-2-4------------------|         
D|----------5-2--------------|---------------------------|         
A|--------------2-2-2-2------|---------------------------|          
E|---------------------------|---------------------------|  

e|---------------------------------|            
B|--7-7-7-7-7-7-10-10-10-10-10-10--|          
G|---------------------------------|        
D|---------------------------------|        
A|---------------------------------|       
E|---------------------------------|

Second Guitar Joins Back In

e|---------------------------|---------------------------|  
B|---------------------------|---------------------------|
G|---------------------------|---------------------------|
D|----------------------2----|---------------------------|
A|------------------------2--|--0-0-0-2-5----------------|
E|---------------------------|------------0-3-3-3-3-3-3--|

e|---------------------------|           
B|---------------------------|        
G|---------------------------|        
D|---------------------------|       
A|---------------------------|        
E|--2-2-2-2-2-2-2-2-2-2-2-2--|
         
VERSE

BASS PART
e|----------------------------|---------------------------------|
B|----------------------------|---------------------------------|
G|----------------------------|---------------------------------|
D|----------------------------|---------------------------------|  x2
A|----------------------------|---------------------------------| 
E|--0---0-0-0-0-/7---7-7-7-7--|--4---4-4-4-4-/11---11-11-11-11--|


Lead Guitar
e|---------------------------|---------------------------------------|
B|---------------------------|---------------------------------------|
G|---------------------------|---------------------------------------|
D|---------------------------|---------------------------------------|  x2
A|--7-7-7-7-7-7-6-6-6-6-6-6--|--11-11-11-11-11-11-13-13-13-13-14-13--| 
E|---------------------------|---------------------------------------|

e|---------------------------------------|---------------------------------|
B|---------------------------------------|---------------------------------|
G|---------------------------------------|---------------------------------|
D|---------------------------------------|---------------------------------|
A|--11-11-11-11-11-11-13-13-13-13-13-13--|--6-6-6-6-6-6-11-11-11-11-11-13--| 
E|---------------------------------------|---------------------------------|

                               x2

CHORUS

First Guitar
e|---------------------------|---------------------------|    
B|---------------------------|---------------------------|    
G|---------------------------|---------------------------|    
D|---------------------------|---------------------------| X3 
A|--4-4-4-4-4-4--------------|---------------------------|    
E|--------------3-3-3-3-3-3--|--2-2-2-2-2-2-0-0-0-0-0-0--|

e|---------------------------|---------------------------|
B|---------------------------|---------------------------|
G|---------------------------|---------------------------|
D|---------------------------|------------------------2--|
A|--4-4-4-4-4-4--------------|----------------------2----|
E|--------------3-3-3-3-3-3--|--2-2-2-2-2-2-0-0-0-0------|

Second Guitar

e|---------------------------|---------------------------|    
B|---------------------------|---------------------------|    
G|--6-6-6-6-6-6-7-7-7-7-7-7--|--8-8-8-8-8-8-9-9-9-9-9-9--|    
D|---------------------------|---------------------------| X3 
A|---------------------------|---------------------------|    
E|---------------------------|---------------------------|    

e|---------------------------|---------------------------|
B|---------------------------|---------------------------|
G|--6-6-6-6-6-6-7-7-7-7-7-7--|--8-8-8-8-8-8-9-9-9-9------|
D|---------------------------|---------------------------|
A|---------------------------|---------------------------|
E|---------------------------|---------------------------|



POST CHORUS RIFF (Third guitar when comes in is same as at top)
                                                      Pause
e|---------------------------|     e|---------------------------|
B|---------------------------|     B|---------------------------|
G|---------------------------|     G|---------------------------|
D|--5-5-5-5-2-------------2--| x3  D|--5-5-5-5-2----------------|
A|------------2---------2----|     A|------------2--------------|
E|--------------0-0-0-0------|     E|--------------0------------|

e|---------------------------|     
B|---------------------------|     
G|---------------------------|     
D|--5-5-5-5-2-------------2--| x2 
A|------------2---------2----|     
E|--------------0-0-0-0------|     

e|---------------------------|---------------------------|  
B|---------------------------|---------------------------|
G|---------------------------|---------------------------|
D|--5-5-5-5-2-----------2----|------------2-5-5-5-5-5-5--|
A|------------2-----------2--|--0-0-0-2-5----------------|
E|--------------0-0-0-0------|---------------------------|

e|---------------------------|
B|---------------------------|
G|---------------------------|
D|--4-4-4-4-4-4-4-4-4-4-4-4--|
A|---------------------------|
E|---------------------------|


Second Guitar

e|---------------------------|---------------------------|  
B|---------------------------|---------------------------|
G|---------------------------|---------------------------|
D|----------------------2----|---------------------------|
A|------------------------2--|--0-0-0-2-5----------------|
E|---------------------------|------------0-3-3-3-3-3-3--|

e|---------------------------|           
B|---------------------------|        
G|---------------------------|        
D|---------------------------|       
A|---------------------------|        
E|--2-2-2-2-2-2-2-2-2-2-2-2--|

           SHAKERS/DRUMS                                           
e|---------------------------|---------------------------|
B|---------------------------|---------------------------|
G|---------------------------|---------------------------|
D|---------------------------|--6-6-6-6-6-6-6-6-6-6-6-6--|  X2
A|---------------------------|--6-6-6-6-6-6-6-6-6-6-6-6--| 
E|---------------------------|--4-4-4-4-4-4-4-4-4-4-4-4--|

VERSE 2

e|---------------------------|---------------------------------------|
B|---------------------------|---------------------------------------|
G|---------------------------|---------------------------------------|
D|---------------------------|---------------------------------------|  
A|--7-7-7-7-7-7-6-6-6-6-6-6--|--11-11-11-11-11-11-13-13-13-13-14-13--| 
E|---------------------------|---------------------------------------|

e|---------------------------|---------------------------|
B|---------------------------|---------------------------|
G|---------------------------|---------------------------|
D|---------------------------|---------------------------|  
A|--7-7-7-7-7-7-6-6-6-6-6-6--|--2-2-2-2-2-2-1-1-1-1-1-1--| 
E|---------------------------|---------------------------|

e|---------------------------------------|---------------------------------|
B|---------------------------------------|---------------------------------|
G|---------------------------------------|---------------------------------|
D|---------------------------------------|---------------------------------|
A|--11-11-11-11-11-11-13-13-13-13-13-13--|--6-6-6-6-6-6-11-11-11-11-11-13--| 
E|---------------------------------------|---------------------------------|

                                 x2

BRIDGE X2

  PM-----------------------------------                             

e|--------------------------------------|--------------------------|
B|--------------------------------------|--------------------------|
G|--------------------------------------|--------------------------|
D|--------------------------------------|--16--16--16--16--16--16--| 
A|--1o-1o-1o-1o-1o-1o-1o-1o-1o-10-10-10-|--------------------------|
E|--8--8--8--8--8--8--8--8--8--8--8--8--|--14--14--14--14--14--14--|

  PM-----------------------------------

e|--------------------------------------|--------------------------|
B|--------------------------------------|--------------------------|
G|--------------------------------------|--------------------------|
D|--------------------------------------|--14--14--14--14--14--14--|
A|--1o-1o-1o-1o-1o-1o-1o-1o-1o-10-10-10-|--------------------------|
E|--8--8--8--8--8--8--8--8--8--8--8--8--|--12--12--12--12--12--12--|


CHORUS 2

First Guitar
e|---------------------------|---------------------------|    
B|---------------------------|---------------------------|    
G|---------------------------|---------------------------|    
D|---------------------------|---------------------------| X4
A|--4-4-4-4-4-4--------------|---------------------------|    
E|--------------3-3-3-3-3-3--|--2-2-2-2-2-2-0-0-0-0-0-0--|

Second Guitar

e|---------------------------|---------------------------|    
B|---------------------------|---------------------------|    
G|--6-6-6-6-6-6-7-7-7-7-7-7--|--8-8-8-8-8-8-9-9-9-9-9-9--|    
D|---------------------------|---------------------------| X4
A|---------------------------|---------------------------|    
E|---------------------------|---------------------------|    

SOLO 1 (Other Guitars Continue Chorus)

e|---------------------------|---------------------------|
B|--5-7--5-7/5---------------|---------------------------|
G|--------------4~------6p4--|--2~------4p2-2p0----------|
D|---------------------------|------------------2--------|  x2
A|---------------------------|---------------------------| 
E|---------------------------|---------------------------|

e|-------------------------------|---------------------------|
B|--5-7p5-5-7-8-7p5--------------|---------------------------|
G|------------------4~------6p4--|--2~------4p2-2p0----------|
D|-------------------------------|------------------2--------| 
A|-------------------------------|---------------------------| 
E|-------------------------------|---------------------------|

e|-------------------------------|---------------------------|
B|--5-7p5-5-7-8-7p5--------------|--10~-------12~------------|
G|------------------4~--------4--|---------------------------|
D|-------------------------------|---------------------------| 
A|-------------------------------|---------------------------| 
E|-------------------------------|---------------------------|

CHORUS 3

First Guitar
e|---------------------------|---------------------------|    
B|---------------------------|---------------------------|    
G|---------------------------|---------------------------|    
D|---------------------------|---------------------------| X4
A|--4-4-4-4-4-4--------------|---------------------------|    
E|--------------3-3-3-3-3-3--|--2-2-2-2-2-2-0-0-0-0-0-0--|

Second Guitar

e|---------------------------|---------------------------|    
B|---------------------------|---------------------------|    
G|--6-6-6-6-6-6-7-7-7-7-7-7--|--8-8-8-8-8-8-9-9-9-9-9-9--|    
D|---------------------------|---------------------------| X4
A|---------------------------|---------------------------|    
E|---------------------------|---------------------------|    


BREAKDOWN (Rough Idea, Generally Improvise)


e|-----------------------------------------|
B|-----------------------------------------|
G|-----------------------------------------|
D|--14b15b14-12----------------------------|
A|--------------14~-14p12-14p12-14b15b14~--| 
E|-----------------------------------------|

e|---------------------------------------------|
B|---------------------------------------------|
G|---------------------------------------------|
D|--14b15b14-12--------------------------------|
A|---------------14~-14/12-12/10-10/9-10p9-7~--|
E|---------------------------------------------|

e|-----------------------------------------|
B|-----------------------------------------|
G|-----------------------------------------|
D|--14b15b14-12----------------------------|
A|--------------14~-14p12-14p12-14b15b14~--|
E|-----------------------------------------|

e|-------------------------------|
B|-------------------------------|
G|--14b15b14-12-14/17-16-17-21~--|
D|-------------------------------|
A|-------------------------------|
E|-------------------------------|

SLIDE GUITAR (Again Rough idea, Generally Improvise)
e|-----------------------------------------|
B|-----------------------------------------|
G|--/9----------/7---------/4--------/9----|
D|-----------------------------------------| X3
A|-----------------------------------------|
E|-----------------------------------------|

e|-------------------------------|
B|--/7------/8--------/10--/12~--|
G|-------------------------------|
D|-------------------------------|
A|-------------------------------|
E|-------------------------------|


END RIFF
                                     This Bar x2
e|---------------------------|---------------------------|           
B|---------------------------|---------------------------|        
G|---------------------------|---------------------------|        
D|------------------------2--|--5-5-5-5-2-------------2--|        
A|----------------------2----|------------2--------------|        
E|---------------------------|--------------0-0-0-0------|

e|---------------------------|---------------------------|
B|---------------------------|---------------------------|
G|---------------------------|---------------------------|
D|--5-5-5-5-2-----------2----|------------2--------------|
A|------------2-----------2--|--0-0-0-2-5----------------|
E|--------------0-0-0-0------|---------------0-----------|

            
            
Suggest correction
Creating personal tab
Creating personal tab
You can edit any tab online and save it as your Personal.

You can edit, replace or remove any tab part or add personal notes – all changes will be seen only by you.

Personal tabs can be accessed anytime from any device, even offline.
Learn more »
comments
print report bad tab
1 comment total.
0 reply
CJLox21 36 Apr 18, 2013 02:58 PM

Ive updated it but whilst im waiting for the checkers ill post it here:
My God Is The Sun
New Song From Like ClockWork
Standard tuning (EADGBE)
Time Sig: 3/4
Have Fun

INTRO

Lead Guitar

Shakers Begin then... This Bar X6
e|---------------------------|---------------------------|
B|---------------------------|---------------------------|
G|---------------------------|---------------------------|
D|------------------------2--|--5-5-5-5-2-------------2--|
A|----------------------2----|------------2---------2----|
E|---------------------------|--------------0-0-0-0------|

e|---------------------------|---------------------------|
B|---------------------------|---------------------------|
G|---------------------------|---------------------------|
D|--5-5-5-5-2-----------2----|------------2-5-5-5-5-5-5--|
A|------------2-----------2--|--0-0-0-2-5----------------|
E|--------------0-0-0-0------|---------------------------|

e|---------------------------|
B|---------------------------|
G|---------------------------|
D|--4-4-4-4-4-4-4-4-4-4-4-4--|
A|---------------------------|
E|---------------------------|

Second Guitar
This Bar X4
e|---------------------------|---------------------------|
B|---------------------------|---------------------------|
G|---------------------------|---------------------------|
D|---------------------------|----------2----------------|
A|---------------------------|------------2-2-2-2-2------|
E|---------------------------|--------------0-0-0-0------|

Third Guitar (Comes in after second has finished)
e|---------------------------|
B|---------------------------|
G|--4-4-4-4------------------|
D|----------5-2---------2-5--| X2
A|--------------2-2-2-2------|
E|---------------------------|

e|---------------------------|---------------------------|
B|----------------------5----|----------3-5-8-8-8-8-8-8--|
G|--4-4-4-4---------------4--|--2-2-2-4------------------|
D|----------5-2--------------|---------------------------|
A|--------------2-2-2-2------|---------------------------|
E|---------------------------|---------------------------|

e|---------------------------------|
B|--7-7-7-7-7-7-10-10-10-10-10-10--|
G|---------------------------------|
D|---------------------------------|
A|---------------------------------|
E|---------------------------------|

Second Guitar Joins Back In

e|---------------------------|---------------------------|
B|---------------------------|---------------------------|
G|---------------------------|---------------------------|
D|----------------------2----|---------------------------|
A|------------------------2--|--0-0-0-2-5----------------|
E|---------------------------|------------0-3-3-3-3-3-3--|

e|---------------------------|
B|---------------------------|
G|---------------------------|
D|---------------------------|
A|---------------------------|
E|--2-2-2-2-2-2-2-2-2-2-2-2--|

VERSE

BASS PART
e|----------------------------|---------------------------------|
B|----------------------------|---------------------------------|
G|----------------------------|---------------------------------|
D|----------------------------|---------------------------------| x2
A|----------------------------|---------------------------------|
E|--0---0-0-0-0-/7---7-7-7-7--|--4---4-4-4-4-/11---11-11-11-11--|

Lead Guitar
e|---------------------------|---------------------------------------|
B|---------------------------|---------------------------------------|
G|---------------------------|---------------------------------------|
D|---------------------------|---------------------------------------| x2
A|--7-7-7-7-7-7-6-6-6-6-6-6--|--11-11-11-11-11-11-13-13-13-13-14-13--|
E|---------------------------|---------------------------------------|

e|---------------------------------------|---------------------------------|
B|---------------------------------------|---------------------------------|
G|---------------------------------------|---------------------------------|
D|---------------------------------------|---------------------------------|
A|--11-11-11-11-11-11-13-13-13-13-13-13--|--6-6-6-6-6-6-11-11-11-11-11-13--|
E|---------------------------------------|---------------------------------|

x2

CHORUS

First Guitar
e|---------------------------|---------------------------|
B|---------------------------|---------------------------|
G|---------------------------|---------------------------|
D|---------------------------|---------------------------| X3
A|--4-4-4-4-4-4--------------|---------------------------|
E|--------------3-3-3-3-3-3--

guest
You may want to rate the tab now too:
select rating
Wanna post a correction for this tab? Suggest correction