Oops, an error
Loading. Please wait.
We have Chord Pro version of The Evil Has Landed.
It's the closest thing you can get to the original song and it has interactive parts. Check out the tab »
×
11,176 views 192 this week
4 commentsread comments
1 2 3 4 5
x 14
add to favorites
×
Save as Personal and add changes to this tab that will be seen only by you. Learn more ›
×
You can save this tab as Personal to edit and correct it or add notes. All changes will be seen only by you. Learn more »
launch autoscroll
font size
0
reset
guitar tuner
edit
Autoscroll
slow
fast
+/-
esc
set tempo
stop
Author
Tabbed by:A Pollard
Tuning: Standard

Feedback appreciated

[Intro] (0:18)
G|----------------------|------9-12----------|----------------9-12-|--------------------|
D|----------------------|---10---------------|-------------10------|10------------------|
A|10-11-12-0---10-10-11-|12---------10-------|10-11-12-0-----------|---12------10-------| x2
E|----------------------|--------------------|---------------------|------12-8----------|

G|----------------------|------9-12----------|----------------9-12-|--------------------|
D|----------------------|---10---------------|-------------10------|10------------------|
A|10-11-12-0---10-10-11-|12---------10-------|10-11-12-0-----------|---12------10-------| 
E|----------------------|--------------------|---------------------|------12-8------8/--|


[Verse 1] (0:35)
G|---------------------|-----------------|------------------------|----------------|
D|------14---12---10---|12---------------|---10-------------------|----------------|
A|---------------------|-----------------|12----12-10-12p10-------|----------------|
E|13-13----------------|-----------------|------------------12p10-|8---------------|

G|---------------------|-------------------|-----------------------|-----------------|
D|------14---12---10---|12-----------14-14-|10---------------------|-----------------|
A|---------------------|-------------------|---12-12-12-12p10-10---|12---------------|
E|13-13----------------|-------------------|-----------------------|-----------------|

G|---------------------|-----------------|------------------------|----------------|
D|------14---12---10---|12---------------|---10-------------------|----------------|
A|---------------------|-----------------|12----12-10-12p10-------|----------------|
E|13-13----------------|-----------------|------------------12p10-|8-----------8/--|

G|---------------------|-------------------|-----------------------|----------------|
D|------14---12---10---|12-----------14-14-|10---------------------|----------------|
A|---------------------|-------------------|---12-12-12-12p10-10\--|----------------|
E|13-13----------------|-------------------|-----------------------|8---------------|

G|---------------------|-----------------|------------------------|----------------|
D|------14---12---10---|12---------------|---10-12-10-------------|----------------|
A|---------------------|---------------x-|12----------12p10-------|----------------|
E|13-13----------------|-----------------|------------------12p10-|8-----------8/--|

G|---------------------|-------------------|-----------------------|----------------|
D|------14---12---10---|12-----------14-14-|10---------------------|----------------|
A|---------------------|-------------------|---12-12-12-12p10-10\--|----------------|
E|13-13----------------|-------------------|-----------------------|8---------------|

G|---------------------|-----------------|------------------------|----------------|
D|------14---12---10---|12---------------|---10-------------------|----------------|
A|---------------------|---------------x-|12----12-10-12p10-------|----------------|
E|13-13----------------|-----------------|------------------12p10-|8-----------8/--|

G|---------------------|--------------------------|-----------------------|----------------|
D|------14---12---10---|12---10h12p10-10----14-14-|10---------------------|----------------|
A|---------------------|-----------------12-------|---12-12-12-12p10-10\--|----------------|
E|13-13----------------|--------------------------|-----------------------|8-----------8/--|

G|---------------------|-----------------|
D|------14---12---10---|-----------------|
A|---------------------|-----------------|
E|13-13----------------|10/--------------|


[Chorus 1] (1:23)
G|----------------------|------9-12----------|----------------9-12-|--------------------|
D|----------------------|---10---------------|-------------10------|10------------------|
A|10-11-12-0---10-10-11-|12---------10-------|10-11-12-0-----------|---12------10-------| x3
E|----------------------|--------------------|---------------------|------12-8----------|

G|----------------------|------9-12----------|----------------9-12-|--------------------|
D|----------------------|---10---------------|-------------10------|10------------------|
A|10-11-12-0---10-10-11-|12---------10-------|10-11-12-0-----------|---12------10-------| 
E|----------------------|--------------------|---------------------|------12-8------8/--|


[Verse 2] (1:45)
G|---------------------|-----------------|------------------------|----------------|
D|------14---12---10---|12---------------|---10-------------------|----------------|
A|---------------------|-----------------|12----12-10-12p10-------|----------------|
E|13-13----------------|-----------------|------------------12p10-|8-----------8/--|

G|---------------------|-------------------|-----------------------|----------------|
D|------14---12---10---|12-----------14-14-|10---------------------|----------------|
A|---------------------|-------------------|---12-12-12-12p10-10\--|----------------|
E|13-13----------------|-------------------|-----------------------|8---------------|

G|---------------------|--------------------------|------------------------|----------------|
D|------14---12---10---|12---10h12p10-10----------|---10-------------------|----------------|
A|---------------------|-----------------12-10h12-|12----12-10-12p10-------|----------------|
E|13-13----------------|--------------------------|------------------12p10-|8-----------8/--|

G|---------------------|-------------------|-----------------------|--------------------|
D|------14---12---10---|12-----------14-14-|10---------------------|--------------------|
A|---------------------|-------------------|---12-12-12-12p10-10\--|------------10---12-|
E|13-13----------------|-------------------|-----------------------|8-10---12-----------|

G|---------------------|-----------------|------------------------|----------------|
D|------14---12---10---|12---------------|---10-12-10-------------|----------------|
A|---------------------|---------------x-|12----------12p10-------|----------------|
E|13-13----------------|-----------------|------------------12p10-|8-----------8/--|

G|---------------------|--------------------------|-----------------------|----------------|
D|------14---12---10---|12---10h12p10-10----14-14-|10---------------------|----------------|
A|---------------------|-----------------12-------|---12-12-12-12p10-10\--|----------------|
E|13-13----------------|--------------------------|-----------------------|8---------------|

G|---------------------|-----------------|------------------------|----------------|
D|------14---12---10---|12---------------|---10-------------------|----------------|
A|---------------------|---------------x-|12----12-10-12p10-------|----------------|
E|13-13----------------|-----------------|------------------12p10-|8-----------8/--|

G|---------------------|-------------------|-----------------------|----------------|
D|------14---12---10---|12-----------14-14-|10---------------------|----------------|
A|---------------------|-------------------|---12-12-12-12p10-10\--|----------------|
E|13-13----------------|-------------------|-----------------------|8-----------8/--|

G|---------------------|-----------------|
D|------14---12---10---|-----------------|
A|---------------------|-----------------|
E|13-13----------------|10---------------|


[Bridge 1] (2:33)
G|--------------------|-------------------|--------------------|-------------------|
D|--------------------|-------------------|--------------------|-------------------|
A|10---10---10\----10-|--10---10-----10-8-|10---10---10\----10-|--10---10-----10-8-|
E|--------------------|------------8------|--------------------|------------8------|

G|----------------|----------------|----------------|-----------------|
D|----------------|----------------|----------------|-----------------|
A|----------------|----------------|----------------|------------10-8-|
E|8---8---8\----8-|--8---8---3/----|8---8---8\----8-|--8---8---8------|

G|--------------------|-------------------|---------10h12------|-------------------|
D|--------------------|-------------------|-----8-----------10-|--12---8-----------|
A|10---10---10\----10-|--10---10-----10-8-|10------------------|-----------10-8-10-|
E|--------------------|------------8------|--------------------|-------------------|

G|----------------|----------------|----------------|-------------------|
D|----------------|----------------|----------------|-------------------|
A|----------------|----------------|----------------|-------------------|
E|8---8---8\----8-|--8---8---3/----|8---8---8\----8-|--8---8---10h12-12-|

G|--------------------|--------------------|--------------------|--------------------|
D|--------------------|--------------------|--------------------|--------------------|
A|12---12---12\----12-|--12---12---19N--17-|19\--12---12\----12-|--12---12---14N--10-|
E|--------------------|--------------------|--------------------|--------------------| 

G|-----------------------|----------------|-----------------------|------------------|
D|12-10------------------|----------------|12-10------------------|------------------|
A|------12-10-12-10------|----------------|------12-10-12-10------|------------------|
E|------------------12-8-|--8---8---------|------------------12-8-|--8---8---10h12---|

G|--------------------|--------------------|--------------------|--------------------|
D|--------------------|--------------------|--------------------|--------------------|
A|12---12---12\----12-|--12---12---19N--17-|19\--12---12\----12-|--12---12---14N--10-|
E|--------------------|--------------------|--------------------|--------------------| 

G|-----------------------|----------------|-----------------------|------------------|
D|12-10------------------|----------------|12-10------------------|------------------|
A|------12-10-12-10------|----------------|------12-10-12-10------|------------------|
E|------------------12-8-|--8---8---------|------------------12-8-|--8---8---10h12---|

G|------------------|-----------------|-------------------|------------------|
D|------------------|----------19N----|19\----------------|------------------|
A|12\--0---0/----12-|--0---0----------|-----12\--0/----12-|--0---0---14N--10-|
E|------------------|-----------------|-------------------|------------------|

G|-----------------------|----------------|------------------|------------------|
D|12-10------------------|----------------|------------------|------------------|
A|------12-10-12-10------|----------------|8---8---8-10-8----|-----------------/|
E|------------------12-8-|--8---8---------|---------------10-|--10---10---------|

G|------------------|------------------|------------------|------------------|
D|------------------|------------------|------------------|------------------|
A|12\--0---0/----12-|--0---0---19N--17-|19\--0---0/----12-|--0---0---14N--10-|
E|------------------|------------------|------------------|------------------| 

G|-----------------------|----------------|-----------|------------|
D|12-10------------------|----------------|-----------|10--11--12--|
A|------12-10-12-10------|----------------|8--10--12--|------------|
E|------------------12-8-|--8---8---------|-----------|------------|


[Chorus 2] (3:39)
G|----------------------|------9-12----------|----------------9-12-|--------------------|
D|----------------------|---10---------------|-------------10------|10------------------|
A|10-11-12-0---10-10-11-|12---------10-------|10-11-12-0-----------|---12------10-------| x3
E|----------------------|--------------------|---------------------|------12-8----------|

G|----------------------|------9-12----------|----------------9-12-|--------------------|
D|----------------------|---10---------------|-------------10------|10------------------|
A|10-11-12-0---10-10-11-|12---------10-------|10-11-12-0-----------|---12------10-------| 
E|----------------------|--------------------|---------------------|------12-8------8---|


[Verse 3] (4:01)
G|---------------------|-----------------|------------------------|----------------|
D|---------------------|-----------------|---10-------------------|----------------|
A|---------------------|-----------------|12----12-10-12p10-------|----------------|
E|13-------12-10---8---|10---------------|------------------12p10-|8-----------8/--|

G|---------------------|-------------------|-----------------------|----------------|
D|------14---12---10---|12-----------14-14-|10---------------------|----------------|
A|---------------------|-------------------|---12-12-12-12p10-10\--|----------------|
E|13-13----------------|-------------------|-----------------------|8---------------|

G|---------------------|-----------------|------------------------|----------------|
D|------14---12---10---|12---------------|---10-------------------|----------------|
A|---------------------|---------------x-|12----12-10-12p10-------|----------------|
E|13-13----------------|-----------------|------------------12p10-|8-----------8/--|

G|---------------------|-------------------|----------------------|
D|------14---12---10---|12-----------14----|----------12----------|
A|---------------------|-------------------|15-12--------15-12-15-|
E|13-13----------------|-------------------|----------------------|


[Bridge 2] (4:22)
G|--------------------|--------------------|--------------------|----------------------|
D|-------14-12--------|-------14-12--------|-------14-12--------|----------12-14-12----|
A|---------------15---|---------------15---|---------------15---|-------15----------15-| x3
E|13------------------|13------------------|10------------------|10--------------------|

G|--------------------|--------------------|--------------------|------------------------|
D|-------14-12--------|-------14-12--------|-------14-12--------|12h14p12----12----------|
A|---------------15---|---------------15---|---------------15---|---------15----15-12----| 
E|13------------------|13------------------|10------------------|---------------------15-|

G|--------------------|--------------------|--------------------|----------------------|
D|-------14-12--------|-------14-12--------|-------14-12--------|----------12-14-12----|
A|---------------15---|---------------15---|---------------15---|-------15----------15-| x2
E|13------------------|13------------------|10------------------|10--------------------|

G|--------------------|--------------------|--------------------|--------------------|
D|-------14-12--------|-------14-12--------|-------14-12--------|-------14-12--------|
A|---------------15---|---------------15---|---------------15---|---------------15---|
E|13------------------|13------------------|10------------------|10------------------|

G|--------------------|--------------------|-----------------|-----------------|
D|-------14-12--------|--------------------|-----------------|-----------------|
A|---------------15---|----------12-12-----|-----------------|-----------------|
E|13------------------|13-----15-------8-8-|10---------------|-----------------|


[Breakdown] (5:11)
G|----------------|----------------|----------------|----------------|
D|----------------|----------------|----------------|----------------|
A|----------------|--------------3-|3-3-5-3-3-3-5-3-|3-3-5-3-3-3-5---| x3
E|5-5-3-5-5-5-3-5-|5-5-3-5-5-3-5---|----------------|--------------3-|

G|----------------|----------------|----------------|--0-2-----------|
D|----------------|----------------|----------------|------0-2-5-2-0-|
A|----------------|--------------3-|3-3-5-3-3-3-5-3-|3---------------|
E|5-5-3-5-5-5-3-5-|5-5-3-5-5-3-5---|----------------|----------------|
                                                                       
G|----------------|----------------|----------------|----------------|
D|----------------|----------------|----------------|----------------|
A|----------------|--------------3-|3-3-5-3-3-3-5-3-|3-3-5-3-3-3-5---|
E|5-5-3-5-5-5-3-5-|5-5-3-5-5-3-5---|----------------|--------------3-|

G|----------------|----------------|----------------|--0-2-----------|
D|----------------|----------------|----------------|------0-2-5-2-0-|
A|----------------|--------------3-|3-3-5-3-3-3-5-3-|3---------------| x5
E|5-5-3-5-5-5-3-5-|5-5-3-5-5-3-5---|----------------|----------------|

G|----------------|----------------|----------------|----------------|
D|----------------|----------------|----------------|----------------|
A|----------------|--------------3-|3-3-5-3-3-3-5-3-|3-3-5-3-3-3-5---|
E|5-5-3-5-5-5-3-5-|5-5-3-5-5-3-5---|----------------|--------------3-|

G|----------------|----------------|----------------|--------------------|
D|----------------|----------------|----------------|------7-5---6---7---|
A|----------------|--------------3-|3-3-5-3-3-3-5-3-|3-3-5---------------|
E|5-5-3-5-5-5-3-5-|5-5-3-5-5-3-5---|----------------|--------------------|

G|----------------|
D|----------------|
A|0---------------|
E|----------------|


| x   Dead note
| h   Hammer-on
| p   Pull-off
| /   Slide up
| \   Slide down
| N   Tremolo

************************************

            
            
Suggest correction
Creating personal tab
Creating personal tab
You can edit any tab online and save it as your Personal.

You can edit, replace or remove any tab part or add personal notes – all changes will be seen only by you.

Personal tabs can be accessed anytime from any device, even offline.
Learn more »
comments
print report bad tab
4 comments total. Showing first comments.
+6 reply
intention_craft 53 Aug 11, 2017 07:14 AM

Really good tab, can't believe how quickly you got it done!

0 reply
muberal 450 Aug 13, 2017 09:21 AM

Great job. Is there a reason why you chose the fifteenth fret for Bridge 2? I'd play that on the D string just like in the verse.

0 reply
Poinkypo 578 Aug 13, 2017 12:45 PM, edited at 05:13 pm

I can assure you that there was at the time...but I can't remember what it was now lol Probably to make this bit easier|------------------------||12h14p12----12----------||---------15----15-12----| |---------------------15-|

guest
You may want to rate the tab now too:
select rating
Wanna post a correction for this tab? Suggest correction