Oops, an error
Loading. Please wait.

The Fun Machine Took A Shit And Died tab

version 2
version 2

Whole song

  • More/detailed guitar parts have been transcribed w... Show more

Interactive

193 views 1 this week
2 commentsread comments
1 2 3 4 5
1 last vote to show rating
add to favorites
×
Save as Personal and add changes to this tab that will be seen only by you. Learn more ›
×
You can save this tab as Personal to edit and correct it or add notes. All changes will be seen only by you. Learn more »
launch autoscroll
font size
0
reset
how to read this tab
guitar tuner
edit
Autoscroll
slow
fast
+/-
esc
set tempo
stop
About this tab version
More/detailed guitar parts have been transcribed within this tab, than previous versions have noted. Was this info helpful? Yes No
"The Fun Machine Took a Shit & Died"

Song: The Fun Machine Took a Shit & Died (bonus track)
Artist: Queens of the Stone Age
Album: Era Vulgaris / Japan (2007)
Transcribed by: Phil Trujeque
http://www.youtube.com/user/thephilth
  
Open G Tuning:
Low to High: D-G-D-G-B-D

Note:
Josh Homme uses bends throughout his playing.
Most of his single-note riffs are rather bendy.
Try to use this *Bend* approach anywhere you can to try and capture the feel.

  INTRO
  BPM: (approx)=125

(Organ arr. for guitar)
 
d|----7--7-----7--7|----7--7-----7--7|----7--7-----7--7|----7--7-----7--7|
B|----7--7-----7--7|----7--7-----7--7|----7--7-----7--7|----7--7-----7--7|
G|-----------------|-----------------|-----------------|-----------------|
D|7--------7-------|7--------7-------|7--------7-------|7--------7-------|
G|-----------------|-----------------|-----------------|-----------------|
D|-----------------|-----------------|-----------------|-----------------|
   

d|----8--8-----8--8|----8--8-----8--8|----8--8-----8--8|----8--8--8------|
B|----8--8-----8--8|----8--8-----8--8|----8--8-----8--8|----8--8--8------|
G|-----------------|-----------------|-----------------|-----------------|
D|5--------5-------|5--------5-------|5--------5-------|5---------5------|
G|-----------------|-----------------|-----------------|-----------------|
D|-----------------|-----------------|-----------------|-----------------|

**************************************************************************
  Rhy. Fig I                                          

d|-----------------------|-----------------------|
B|-----------------------|-----------------------|
G|-----------------------|-----------------------|
D|-----------------------|--------------11b------|
G|15-p0-15-p0-15-p0-15-p0|15-p0-15-p0------------|
D|-----------------------|-----------------------|

d|-----------------------|-----------------------|
B|-----------------------|-----------------------|
G|-----------------------|-----------------------|
D|-----------------------|--------------11b------|
G|15-p0-15-p0-15-p0-15-p0|15-p0-15-p0------------|
D|-----------------------|-----------------------|

d|-----------------------|-----------------------|
B|-----------------------|-----------------------|
G|-----------------------|----15-----------------|
D|-----------------------|--14-------------------|
G|15-p0-15-p0-17-p0-15-p0|15-----15\12b12--------|
D|-----------------------|-----------------------|

d|-----------------------|-----------------------|
B|-----------------------|-----------------------|
G|-----------------------|--------------11b------|
D|---------------14-12---|14--12-----------------|
G|15-p0-15-p0-15-------15|------15-p0------------|
D|-----------------------|-----------------------|

**************************************************
  Verse I

  [0:30]
d|-----------------------|-----------------------|
B|-----------------------|-----------------------|
G|-----------------------|-----------------------|
D|-----------------------|--------------11b------|
G|15-p0-15-p0-15-p0-15-p0|15-p0-15-p0------------|
D|-----------------------|-----------------------|
1.    Got guns do you wanna___

d|-----------------------|-----------------------|
B|-----------------------|-----------------------|
G|-----------------------|-----------------------|
D|-----------------------|--------------11b------|
G|15-p0-15-p0-15-p0-15-p0|15-p0-15-p0------------|
D|-----------------------|-----------------------|
1.    Take aim at each other?

d|-----------------------|-----------------------|
B|-----------------------|-----------------------|
G|-----------------------|-----------------------|
D|-----------------------|-----------------------|
G|15-p0-15-p0-15-p0-15-p0|15-p0-15-p0-15-p0-15\--|
D|-----------------------|-----------------------|
1. Scratch the itch, give the finger 'cause we don't

d|-----------------------|-----------------------|
B|-----------------------|-----------------------|
G|7--7---5h7---7--7---5h7|7-7-5------------------|
D|7--7---------7--7------|7-7---7p5-7b7---5------|
G|-----------------------|-----------------------|      
D|-----------------------|-----------------------|
1. Care__                        ...any way____

d|-----------------------|-----------------------|
B|-----------------------|-----------------------|
G|-----------------------|-----------------------|
D|-----------------------|--------------11b------|
G|15-p0-15-p0-15-p0-15-p0|15-p0-15-p0------------|
D|-----------------------|-----------------------|
1. Got knives, have you seen 'em?

d|-----------------------|-----------------------|
B|-----------------------|-----------------------|
G|-----------------------|-------15-15--11b------|
D|-----------------------|----14------14b--------|
G|15-p0-15-p0-15-p0-15-p0|15---------------------|
D|-----------------------|-----------------------|
1. In your back's where we keep 'em

d|-----------------------|-----------------------|
B|-----------------------|-----------------------|
G|-----------------------|-----------------------|
D|-----------------------|--14-------------------|
G|15-p0-15-p0-17-p0-15-p0|17--17-15-p0-15\-------|
D|-----------------------|-----------------------|
1. And you're never gonna reach 'em, now that sounds

d|-----------------------|-----------------------|
B|-----------------------|-----------------------|
G|7--7--p5-----7--7--p5-7|7-7-5------7-----8-----|
D|7--7-----7---7--7-----7|7-7---7p5--7-----8-----|
G|-----------------------|-----------------------|      
D|-----------------------|-----------------------|
1. Fair____
***********************************************************
  [Note: If anyone 'really' wants the mandolin part transcribed, comment below.]

  CHORUS

d|-------------------------|----------------------|
B|-------------------------|----------------------|
G|10-10---8h10-10-10---8h10|10-10---8h10-10-\8-8\7|
D|10-10---8h10-10-10---8h10|10-10---8h10-10-\8-8\7|
G|10-10---8h10-10-10---8h10|10-10---8h10-10-\8-8\7|
D|-------------------------|----------------------|
  Oh_____                       this is bound to be

d|-----------------------|-----------------------|
B|-----------------------|-----------------------|
G|7-----7-----7-----7----|7-7---5h7--7-----8-----|
D|7-----7-----7-----7----|7-7---5h7--7-----8-----|
G|7-----7-----7-----7----|7-7---5h7--7-----8-----|      
D|-----------------------|-----------------------|
  Good________________               You can't____

d|-------------------------|-------------------------|
B|-------------------------|-------------------------|
G|10-10---8h10-10-10---8h10|10-10---8h10-10-/12-8-/10|
D|10-10---8h10-10-10---8h10|10-10---8h10-10-/12-8-/10|
G|10-10---8h10-10-10---8h10|10-10---8h10-10-/12-8-/10|
D|-------------------------|-------------------------|
                              But you thought that you

d|-----------------------|-----------------------|
B|-----------------------|-----------------------|
G|7-----7-----7-----7----|7-7---5h7--7-----------|
D|7-----7-----7-----7----|7-7---5h7--7-----------|
G|7-----7-----7-----7----|7-7---5h7--7-----------|      
D|-----------------------|-----------------------|
  Could_______________
***********************************************************************
Rhy. Fig II

 [1:15]
e|--------------|--------------|--------------|--------------|Play 2x's
B|--------------|--------------|--------------|--------------|
G|--------------|--------------|--------------|--------------|
D|0----0-12-15--|0----0-12-15--|0----0-12-15--|0----0-12-15--|
A|0----0-12-15--|0----0-12-15--|0----0-12-15--|0----0-12-15--|
E|--------------|--------------|--------------|--------------|

  Solo

 [1:22]      
e|--------------------------------|--------------------------------|
B|---------14---------------14----|---------14---14-15-14--14------|
G|12----15-----15-12----15------15|12----15--------------15---15-12|
D|--------------------------------|--------------------------------|
A|--------------------------------|--------------------------------|
E|--------------------------------|--------------------------------|
  Yeah_____________

e|--------------------------------|--------------------------------|
B|---------14---------------14----|---------14---14-15-14--14------|
G|12----15-----15-12----15------15|12----15--------------15---15-12|
D|--------------------------------|--------------------------------|
A|--------------------------------|--------------------------------|
E|--------------------------------|--------------------------------|

  [1:30]
e|--------------------------------|17b----17-----------------------|
B|-------------14-15-17--15---18--|-----------18-------------------|
G|15-----15-----------------------|--------------------------------|
D|--------------------------------|--------------------------------|
A|--------------------------------|------------------15b-\---------|
E|--------------------------------|------------------15b-\---------|

 
e|--------------------------------|--------------------------------|
B|---------14---------------14----|---------14--15--b--------------|
G|12----15-----15-12----15------15|12----15-----15-----------------|
D|--------------------------------|--------------------------------|
A|--------------------------------|--------------------------------|
E|--------------------------------|--------------------------------|

*********************************************************************
 Verse II

e|--------------|--------------|--------------|--------------|
B|--------------|--------------|--------------|--------------|
G|--------------|--------------|--------------|--------------|
D|0----0-12-15--|0----0-12-15--|0----0-12-15--|0-------------|
A|0----0-12-15--|0----0-12-15--|0----0-12-15--|0-------------|
E|--------------|--------------|--------------|--------------|
2. Boy                  little  town                 Little ki__

e|--------------|--------------|--------------|--------------|
B|--------------|--------------|--------------|--------------|
G|--------------|--------------|--------------|--------------|
D|0----0-12-15--|0----0-12-15--|0----0-12-15--|0-------------|
A|0----0-12-15--|0----0-12-15--|0----0-12-15--|0-------------|
E|--------------|--------------|--------------|--------------|
2. ___ng             little crown______

e|--------------|--------------|--------------|--------------|
B|--------------|--------------|--------------|--------------|
G|--------------|--------------|--------------|--------------|
D|0----0-12-15--|0----0-12-15--|0----0-12-15--|0----15-\-----|
A|0----0-12-15--|0----0-12-15--|0----0-12-15--|0----15-\-----|
E|--------------|--------------|--------------|--------------|
2. Hope you give, hope you give, why don't you just give in___?

d|-----------------------|-----------------------|
B|-----------------------|-----------------------|
G|7--7---------7--7------|7--7-------------------|
D|7--7---------7--7---5/7|7--7---------7b7---5---|
G|7--7---10-7--7--7---5/7|7--7--10-7-7-----------|      
D|-----------------------|-----------------------|

e|--------------|--------------|--------------|--------------|
B|--------------|--------------|--------------|--------------|
G|--------------|--------------|--------------|--------------|
D|0----0-12-15--|0----0-12-15--|0----0-12-15--|0-------------|
A|0----0-12-15--|0----0-12-15--|0----0-12-15--|0-------------|
E|--------------|--------------|--------------|--------------|
2.Come     on  take it with a  smile____

e|--------------|--------------|--------------|--------------|
B|--------------|--------------|--------------|--------------|
G|--------------|--------------|--------------|--------------|
D|0----0-12-15--|0----0-12-15--|0----0-12-15--|0-------------|
A|0----0-12-15--|0----0-12-15--|0----0-12-15--|0-------------|
E|--------------|--------------|--------------|--------------|
2.      At the bottom   of the  pile

e|--------------|--------------|--------------|--------------|
B|--------------|--------------|--------------|--------------|
G|--------------|--------------|--------------|--------------|
D|0----0-12-15--|0----0-12-15--|0----0-12-15--|0----15-\-----|
A|0----0-12-15--|0----0-12-15--|0----0-12-15--|0----15-\-----|
E|--------------|--------------|--------------|--------------|
2. You can beg, you can plead        it won't  take a

d|-----------------------|-----------------------|
B|-----------------------|-----------------------|
G|7--7--p5-----7--7--p5-7|7-7-5------7-----8-----|
D|7--7-----7---7--7-----7|7-7---7p5--7-----8-----|
G|-----------------------|-----------------------|      
D|-----------------------|-----------------------|
2. thing_________
***********************************************************
  CHORUS

d|-------------------------|----------------------|
B|-------------------------|----------------------|
G|10-10---8h10-10-10---8h10|10-10---8h10-10-\8-8\7|
D|10-10---8h10-10-10---8h10|10-10---8h10-10-\8-8\7|
G|10-10---8h10-10-10---8h10|10-10---8h10-10-\8-8\7|
D|-------------------------|----------------------|
  Oh_____                       this is bound to be

d|-----------------------|-----------------------|
B|-----------------------|-----------------------|
G|7-----7-----7-----7----|7-7---5h7--7-----8-----|
D|7-----7-----7-----7----|7-7---5h7--7-----8-----|
G|7-----7-----7-----7----|7-7---5h7--7-----8-----|      
D|-----------------------|-----------------------|
  Good________________               You can't____

d|-------------------------|-------------------------|
B|-------------------------|-------------------------|
G|10-10---8h10-10-10---8h10|10-10---8h10-10-/12-8-/10|
D|10-10---8h10-10-10---8h10|10-10---8h10-10-/12-8-/10|
G|10-10---8h10-10-10---8h10|10-10---8h10-10-/12-8-/10|
D|-------------------------|-------------------------|
                              But you thought that you

d|-----------------------|-----------------------|
B|-----------------------|-----------------------|
G|7-----7-----7-----7----|7-7---5h7--7-----------|
D|7-----7-----7-----7----|7-7---5h7--7-----------|
G|7-----7-----7-----7----|7-7---5h7--7-----------|      
D|-----------------------|-----------------------|
  Could_______________

 [2:22]

d|-------------------------|----------------------|
B|-------------------------|----------------------|
G|-------------------------|----------------------|
D|7------------8----------/|10---------/13--------|
G|-------------------------|----------------------|
D|-------------------------|----------------------|
  Oh_____                           how can you win

d|-----------------------|-----------------------|
B|-----------------------|-----------------------|
G|-----------------------|-----------------------|
D|7----------8-----------|7-------h8p7-4---------|
G|-----------------------|-----------------------|      
D|-----------------------|-----------------------|
  ____________________                    Against

d|-------------------------|----------------------|
B|-------------------------|----------------------|
G|-------------------------|----------------------|
D|7-------5--7/8------7--8/|10---------/11--------|
G|-------------------------|----------------------|
D|-------------------------|----------------------|
                                    ____yourself again

d|-----------------------|-----------------------|
B|-----------------------|-----------------------|
G|-----------------------|-----------------------|
D|7----------8-----------|7-------/8\7-4---------|
G|-----------------------|-----------------------|      
D|-----------------------|-----------------------|
  ____________________
***********************************************************
  BRIDGE

 [2:36]
e|---------------------------|---------------------------| Play 2X'S
B|---------------------------|---------------------------|
G|---------------------------|---------------------------|
D|0---------12--15p12----0---|0---------12--15p12----0---|
A|0---12h15----------15--0---|0---12h15----------15--0---|
E|---------------------------|---------------------------|

e|---------------------------|---------------------------|
B|---------------------------|---------------------------|
G|---------------------------|---------------------------|
D|0---------12--15p12----0---|0---------12--15p12--15-15b|
A|0---12h15----------15--0---|0---12h15----------15------|
E|---------------------------|---------------------------|

***********************************************************
 [2:52]
e|---------------------------|---------------------------|
B|---------------------------|---------------------------|
G|---------------------------|---------------------------|
D|0---------12--15p12-----15-|0---------12--15p12--15-15-|
A|0---12h15----------15------|0---12h15----------15------|
E|---------------------------|---------------------------|

e|---------------------------|-----------------------------|
B|---------------------------|-----------------------------|
G|---------------------------|---------------------15-15-15|
D|0---------12--15p12--15-15-|0-------12--15b15b15b15b15b15|
A|0---12h15----------15------|0--12h15---------------------|
E|---------------------------|-----------------------------|

***********************************************************
  [SLOWER TEMPO: approx. 85=BPM]

e|---------------------------|---------------------------|
B|---------------------------|---------------------------|
G|---------------------------|---------------------------|
D|0---------12--15p12----0---|0---------12--15p12----0---|
A|0---12h15----------15--0---|0---12h15----------15--0---|
E|---------------------------|---------------------------|

e|---------------------------|---------------------------|
B|---------------------------|---------------------------|
G|---------------------------|---------------------------|
D|0---------12--15p12----0---|0---------12--15p12--15-15b|
A|0---12h15----------15--0---|0---12h15----------15------|
E|---------------------------|---------------------------|

e|---------------------------|---------------------------|
B|---------------------------|---------------------------|
G|---------------------------|---------------------------|
D|0---------12--15p12----0---|0---------12--15p12----0---|
A|0---12h15----------15--0---|0---12h15----------15--0---|
E|---------------------------|---------------------------|

e|---------------------------|---------------------------|
B|---------------------------|---------------------------|
G|---------------------------|---------------------------|
D|0---------12--15p12----0---|0---------12--15p12--15-15b|
A|0---12h15----------15--0---|0---12h15----------15------|
E|---------------------------|---------------------------|

***********************************************************
 [3:23]

e|---------------------------|---------------------------| Gtr. I
B|---------------------------|---------------------------|
G|---------------------------|---------------------------|
D|0---------12--15p12--15-15b|0---------12--15p12--15-15b|
A|0---12h15----------15------|0---12h15----------15------|
E|---------------------------|---------------------------|

e|---------------------------|---------------------------| Gtr. II
B|---------------------------|---------------------------|
G|10--12---------------------|10--12---------------------|
D|-------/12----5-7b-5-/12---|-------/12----5-7b-7b--5---|
A|---------------------------|---------------------------|
E|---------------------------|---------------------------|

********************************************************************
 Note:
 For this[*] part you want to use a quick up/down bend-and-release on the [12fr] Dsus4 chord.

 [3:34]
                   [*]    
e|--------------------------------|--------------------------------|
B|--------------------------------|--------------------------------|
G|0---0-----10h12--12b-12----12\--|0---0-----10h12--12b-12----12\--|
D|0---0-----10h12--12b-12----12\--|0---0-----10h12--12b-12----12\--|
A|0---0-----10h12--12b-12----12\--|0---0-----10h12--12b-12----12\--|
E|--------------------------------|--------------------------------|

e|--------------------------------|--------------------------------|
B|--------------------------------|--------------------------------|
G|--------------------------------|--------------------------------|
D|0---------12---15p12-------0----|0---------12---15---12----12----|
A|0---12h15-------------15---0----|0---12h15--------15----15-------|
E|--------------------------------|--------------------------------|

e|--------------------------------|--------------------------------|
B|--------------------------------|--------------------------------|
G|0---0-----10h12--12b-12----12\--|0---0-----10h12--12b-12----12\--|
D|0---0-----10h12--12b-12----12\--|0---0-----10h12--12b-12----12\--|
A|0---0-----10h12--12b-12----12\--|0---0-----10h12--12b-12----12\--|
E|--------------------------------|--------------------------------|

e|--------------------------------|--------------------------------|
B|--------------------------------|--------------------------------|
G|--------------------------------|--------------------------------|
D|0---------12---15p12----12------|0------12----12-----------------|
A|0---12h15-------------15--15-12-|0---15----15-------15-0-15------|
E|--------------------------------|--------------------------------|

e|--------------------------------|--------------------------------|
B|--------------------------------|--------------------------------|
G|0---0-----10h12--12b-12----12\--|0---0-----10h12--12b-12------15-|
D|0---0-----10h12--12b-12----12\--|0---0-----10h12--12b-12------15-|
A|0---0-----10h12--12b-12----12\--|0---0-----10h12--12b-12------15-|
E|--------------------------------|--------------------------------|

e|--------------------------------|--------------------------------|
B|--------------------------------|--------------------------------|
G|--------------------------------|--------------------------------|
D|0---------12---15p12-------0----|0--------12-15p12--12---12------|
A|0---12h15-------------15---0----|0---12h15--------15---15--15----|
E|--------------------------------|--------------------------------|

e|--------------------------------|--------------------------------|
B|--------------------------------|--------------------------------|
G|0---0-----10h12--12b-12----12\--|0---0-----10h12--12b-12----12\--|
D|0---0-----10h12--12b-12----12\--|0---0-----10h12--12b-12----12\--|
A|0---0-----10h12--12b-12----12\--|0---0-----10h12--12b-12----12\--|
E|--------------------------------|--------------------------------|

********************************************************************
 FASTER TEMPO
 [4:14]

e|--------------------------------|--------------------------------| Play 2x's
B|--------------------------------|--------------------------------|
G|0---0-----10h12--12b-12----12\--|0---0-----10h12--12b-12----12\--|
D|0---0-----10h12--12b-12----12\--|0---0-----10h12--12b-12----12\--|
A|0---0-----10h12--12b-12----12\--|0---0-----10h12--12b-12----12\--|
E|--------------------------------|--------------------------------|

e|-----------------------------------------------------------------| Play 8x's
B|-----------------------------------------------------------------|
G|-----------------------------------------------------------------|
D|---------------------------------11p9p0----------12p9p0-------6--|
A|0---0-12p10p0--12p10p0--12p10p0----------12p10p0----------8p0----|
E|-----------------------------------------------------------------|

 [4:52]
e|----------------------------------------------------------------------|
B|----------------------------------------------------------------------|
G|----------------------------------------------------------------------|
D|0----------12p10p0--12p10p0--12p10p0--12p10p0--12p10p0--12p10p0-12--12|
A|0----------12p10p0--12p10p0--12p10p0--12p10p0--12p10p0--12p10p0-12--12|
E|----------------------------------------------------------------------|

e|----------------------------------------------------------------------|
B|----------------------------------------------------------------------|
G|----------------------------------------------------------------------|
D|12p10p0--12p10p0--12p10p0--12p10p0--12p10p0--12p10p0--12p10p0--12--12-|
A|12p10p0--12p10p0--12p10p0--12p10p0--12p10p0--12p10p0--12p10p0--12--12-|
E|----------------------------------------------------------------------|

e|----------------------------------------------------------------------|
B|----------------------------------------------------------------------|
G|----------------------------------------------------------------------|
D|12p10p0--12p10p0--12p10p0---12--12--12p10p0--12p10p0--12p10p0--12--12-|
A|12p10p0--12p10p0--12p10p0---12--12--12p10p0--12p10p0--12p10p0--12--12-|
E|----------------------------------------------------------------------|

e|----------------------------------------------------------------------|
B|----------------------------------------------------------------------|
G|----------------------------------7-----7-----7-----7p5h7---7---------|
D|12p10p0--12--12--12p10p0--12--12--7-----7-----7-----7p5h7---7---------|
A|12p10p0--12--12--12p10p0--12--12--7-----7-----7-----7p5h7---7---------|
E|----------------------------------------------------------------------|

**************************************************************************
Verse IV [w/improvised guitar noises]

How you like your position?
You ain't Robert Mitchum.
You're ten pounds of shit,
In a five pound bag.

d|----------------------------------------------|
B|----------------------------------------------|
G|7--7---5h7--7--7---5h7--7-7-7p5h7--7-----8----|
D|7--7---5h7--7--7---5h7--7-7-7p5h7--7-----8----|
G|----------------------------------------------|       
D|----------------------------------------------|

***********************************************************
  CHORUS

 [5:52]
d|-------------------------|----------------------|
B|-------------------------|----------------------|
G|10-10---8h10-10-10---8h10|10-10---8h10-10-\8-8\7|
D|10-10---8h10-10-10---8h10|10-10---8h10-10-\8-8\7|
G|10-10---8h10-10-10---8h10|10-10---8h10-10-\8-8\7|
D|-------------------------|----------------------|
  Oh_____                       this is bound to be

d|-----------------------|-----------------------|
B|-----------------------|-----------------------|
G|7-----7-----7-----7----|7-7---5h7--7-----8-----|
D|7-----7-----7-----7----|7-7---5h7--7-----8-----|
G|7-----7-----7-----7----|7-7---5h7--7-----8-----|      
D|-----------------------|-----------------------|
  Good________________               You can't____

d|-------------------------|-------------------------|
B|-------------------------|-------------------------|
G|10-10---8h10-10-10---8h10|10-10---8h10-10-/12-8-/10|
D|10-10---8h10-10-10---8h10|10-10---8h10-10-/12-8-/10|
G|10-10---8h10-10-10---8h10|10-10---8h10-10-/12-8-/10|
D|-------------------------|-------------------------|
                              But you thought that you

d|-----------------------|-----------------------|
B|-----------------------|-----------------------|
G|7-----7-----7-----7----|7-7---5h7--7-----------|
D|7-----7-----7-----7----|7-7---5h7--7-----------|
G|7-----7-----7-----7----|7-7---5h7--7-----------|      
D|-----------------------|-----------------------|
  Could_______________

 [2:22]

d|-------------------------|----------------------|
B|-------------------------|----------------------|
G|-------------------------|----------------------|
D|7------------8----------/|10---------/13--------|
G|-------------------------|----------------------|
D|-------------------------|----------------------|
  Oh_____                           how can you win

d|-----------------------|-----------------------|
B|-----------------------|-----------------------|
G|-----------------------|-----------------------|
D|7----------8-----------|7-------h8p7-4---------|
G|-----------------------|-----------------------|      
D|-----------------------|-----------------------|
  ____________________                    Against

d|-------------------------|----------------------|
B|-------------------------|----------------------|
G|-------------------------|----------------------|
D|7-------5--7/8------7--8/|10---------/11--------|
G|-------------------------|----------------------|
D|-------------------------|----------------------|
                                    ____yourself again

d|-----------------------|-----------------------|
B|-----------------------|-----------------------|
G|-----------------------|-----------------------|
D|7----------8-----------|7-------/8\7-4---------|
G|-----------------------|-----------------------|      
D|-----------------------|-----------------------|
  ____________________
***********************************************************

e|--------------------------|--------------------------|
B|6-6-6--6-6-6--8-6-8--6-6-6|6-6-6--6-6-6--8-6-8--6-6-8|
G|7-7-7--7-7-7--7-7-7--7-7-7|7-7-7--7-7-7--7-7-7--7-7-7|
D|8-8-8--8-8-8--8-8-8--8-8-8|8-8-8--8-8-8--8-8-8--8-8-8|
A|--------------------------|--------------------------|
E|--------------------------|--------------------------|
  Yeah_____________                     Ooooh_____


e|--------------------------------------|--------------------------------|
B|8--8--8---8--8--8---10-8--10--8--8--8-|8--8--8---8--8--8---8--8--8-/10\|
G|9--9--9---9--9--9---9--9--9---9--9--9-|9--9--9---9--9--9---9--9--9-----|
D|10-10-10--10-10-10--10-10-10--10-10-10|10-10-10--10-10-10--10-10-10/12\|
A|--------------------------------------|--------------------------------|
E|--------------------------------------|--------------------------------|
  Yeah_____________                     Ooooh_____


e|--------------------------|--------------------------|
B|6-6-6--6-6-6--8-6-8--6-6-6|6-6-6--6-6-6--8-6-8--6-6-8|
G|7-7-7--7-7-7--7-7-7--7-7-7|7-7-7--7-7-7--7-7-7--7-7-7|
D|8-8-8--8-8-8--8-8-8--8-8-8|8-8-8--8-8-8--8-8-8--8-8-8|
A|--------------------------|--------------------------|
E|--------------------------|--------------------------|
  Yeah_____________                               Ooooh_____


e|--------------------------------------|--------------------------------|
B|8--8--8---8--8--8---10-8--10--8--8--8-|8--8--8---8--8--8---8--8--8-/10\|
G|9--9--9---9--9--9---9--9--9---9--9--9-|9--9--9---9--9--9---9--9--9-----|
D|10-10-10--10-10-10--10-10-10--10-10-10|10-10-10--10-10-10--10-10-10/12\|
A|--------------------------------------|--------------------------------|
E|--------------------------------------|--------------------------------|
  Yeah_____________                     Ooooh_____


e|--------------------------|--------------------------|
B|6-6-6--6-6-6--8-6-8--6-6-6|6-6-6--6-6-6--8-6-8--6-6-8|
G|7-7-7--7-7-7--7-7-7--7-7-7|7-7-7--7-7-7--7-7-7--7-7-7|
D|8-8-8--8-8-8--8-8-8--8-8-8|8-8-8--8-8-8--8-8-8--8-8-8|
A|--------------------------|--------------------------|
E|--------------------------|--------------------------|
  Yeah_____________                               Ooooh_____

 
e|--------------------------------------|------------------------------------|
B|8--8--8---8--8--8---8--8--8---8--8--8-|9--9--9---9--9--9---9--9--9---9--9-/|
G|9--9--9---9--9--9---9--9--9---9--9--9-|10-10-10--10-10-10--10-10-10--10-10/|
D|10-10-10--10-10-10--10-10-10--10-10-10|11-11-11--11-11-11--11-11-11--11-11/|
A|--------------------------------------|------------------------------------|
E|--------------------------------------|------------------------------------|
  Yeah_____________                     Ooooh_____


d|15---------------------13-\-12-----------------|
B|13--------------------11--\-10-----------------|
G|14-------------------12---\-11-----------------|
D|15------------------13----\-12-----------------|
G|-----------------------------------------------|      
D|-----------------------------------------------|
  Ooooh_________

e|--------------|--------------|--------------|--------------|
B|--------------|--------------|--------------|--------------|
G|--------------|--------------|--------------|--------------|
D|0----0-12-15--|0----0-12-15--|0----0-12-15--|0-------------|
A|0----0-12-15--|0----0-12-15--|0----0-12-15--|0-------------|
E|--------------|--------------|--------------|--------------|

**************************************************************

/ = slide up
\ = slide down
h = hammer-on
p = pull-off
b = bend

**************************************************************

            
            
Suggest correction
Creating personal tab
Creating personal tab
You can edit any tab online and save it as your Personal.

You can edit, replace or remove any tab part or add personal notes – all changes will be seen only by you.

Personal tabs can be accessed anytime from any device, even offline.
Learn more »
Give kudos to tab author, rate the tab!
1 2 3 4 5
comments
print report bad tab
2 comments total.
0 reply
kytarman 10 Sep 25, 2017 12:56 PM

nice work dude!

0 reply
The_Philth 292 Sep 29, 2017 10:34 PM

Thank you kind Sir!

guest
You may want to rate the tab now too:
select rating
Wanna post a correction for this tab? Suggest correction