Oops, an error
Loading. Please wait.

Apparent Mood tab

version 1
version 1

Whole song

Interactive

83 views 1 this week
no commentswrite comment
1 2 3 4 5
3 more votes to show rating
add to favorites
×
Save as Personal and add changes to this tab that will be seen only by you. Learn more ›
×
You can save this tab as Personal to edit and correct it or add notes. All changes will be seen only by you. Learn more »
launch autoscroll
font size
0
reset
how to read this tab
guitar tuner
edit
Autoscroll
slow
fast
+/-
esc
set tempo
stop
#----------------------------------PLEASE NOTE---------------------------------#
#This file is the author's own work and represents their interpretation of the #
#song. You may only use this file for private study, scholarship, or research. #
#------------------------------------------------------------------------------##

                                  APPARENT MOOD
                            As recorded by Quinn Peck

Music by Quinn Peck
Arranged by Quinn Peck
Transcribed by guitarist5240

Gtr I (E A D G B E) - 'Untitled'
Gtr II (E A D G B E) - 'Untitled'
Gtr III (E A D G B E) - 'Untitled'
Gtr IV (E A D G B E) - 'Untitled'

 Intro
  Q=100
  Em                Em7/C            G                 G/B
 4/4
  Gtr I
  E E E E E E E E   E E E Q.   E E   E E E E E E E E   E E E Q.   E E
|-------0-3-------|-------3--------|---------3-------|--------------0--|
|-----0-----0-----|-----3--------3-|-------3---3-----|-------0----3----|
|---0---------0---|------------0---|-----------------|-----0-----------|
|-2-------------2-|---2------------|-----0-----------|---0-------------|
|-----------------|-3--------------|---2---------0-1-|-2---------------|
|-----------------|----------------|-3---------------|-----------------|


  Em               Em7/C              G                 G/B
  E E E Q  E E E   E E E Q.   E S S   E E E E E E E E   E E E Q.   E E
|-------3--------|-------3----3-x-3-|---------3-------|--------------0--|
|-----0----0-----|-----3-3----3-x-3-|-------3---3-----|-------0----3----|
|---0--------0---|------------0-x-x-|-----------------|-----0-----------|
|-2------------2-|---2--------------|-----0-----------|---0-------------|
|----------------|-3----------------|---2---------0-1-|-2---------------|
|----------------|------------------|-3---------------|-----------------|
|
| Gtr II
| W                W                  W                 W
|-3--------------|-3----------------|-3---------------|-7---------------|
|-0--------------|-3----------------|-3---------------|-3---------------|
|-0--------------|-0----------------|-0---------------|-4---------------|
|-2--------------|------------------|-----------------|-5---------------|
|----------------|-3----------------|-2---------------|-----------------|
|----------------|------------------|-----------------|-----------------|


  Em                          Em7/C                     G
  Gtr I
  E  E E E  E   E   E   E     E  E E Q.         E   E
|--------0--3---------------|--------3------------------|
|------0--------0-----------|------3----------------3---|
|----0--------------0-------|-------------------0-------|
|-2---------------------2---|----2----------------------|
|---------------------------|-3-------------------------|
|---------------------------|---------------------------|
|
| E  E E E  S S S S S S S S   E  E E E  S S S S S S S S
|--------0--3-----3-----3---|--------3--3-----3-----3---|
|------0------0-----0-----0-|------3------3-----3-----3-|
|----0----------0-----0-----|---------------0-----0-----|
|-2------5----------2---5---|----2---5--------------5---|
|---------------------------|-3-----------------3-------|
|---------------------------|---------------------------|
  Q.     Q.         E   E     Q.     Q.         E   E


                              G/B
  E  E E E  E   E   E   E     E  E E Q.         E   E
|-----------3---------------|-----------------------0------|
|--------3------3-----------|--------0----------3----------|
|---------------------------|------0-----------------------|
|------0--------------------|----0-------------------------|
|----2--------------0---1---|-2----------------------------|
|-3-------------------------|------------------------------|
|
| E  E E E  S S S S S S S S   E  E E E  S S S S S S S S
|-----------3-----3-----3---|-----------0-----0-----0------|
|--------3----3-----3-----3-|--------0----3-0---3-0---3----|
|---------------0-----0-----|------0----------------0------|
|------0-5------------------|----0---0----------0-2---0----|
|----2--------------0---1---|-2----------------------------|
|-3-------------------------|------------------------------|
  Q.     Q.         E   E     Q.     Q.         S S S S


  Em                          Em7/C
  E  E E Q      E   E   E     E  E E Q.         E   S S
|--------3------------------|--------3----------3---x-3-|
|------0--------0-----------|------3------------3---x-3-|
|----0--------------0-------|-------------------0---x-x-|
|-2---------------------2---|----2----------------------|
|---------------------------|-3-------------------------|
|---------------------------|---------------------------|
|
| E  E E E  S S S S S S S S   E  E E E  S S S S S S S S
|--------0--3-----3-----3---|--------3--3-----3-----3---|
|------0------0-----0-----0-|------3------3-----3-----3-|
|----0----------0-----0-----|---------------0-----0-----|
|-2------5----------2---5---|----2---5--------------5---|
|---------------------------|-3-----------------3-------|
|---------------------------|---------------------------|
  Q.     Q.         E   E     Q.     Q.         E   E


  G                           G/B
  E  E E E  E   E   E   E     E  E E Q.         E   E
|-----------3---------------|-----------------------0------|
|--------3------3-----------|--------0----------3----------|
|---------------------------|------0-----------------------|
|------0--------------------|----0-------------------------|
|----2--------------0---1---|-2----------------------------|
|-3-------------------------|------------------------------|
|
| E  E E E  S S S S S S S S   E  E E E  S S S S S S S S
|-----------3-----3-----3---|-----------0-----0-----0------|
|--------3----3-----3-----3-|--------0----3-0---3-0---3----|
|---------------0-----0-----|------0----------------0------|
|------0-5------------------|----0---0----------0-2---0----|
|----2--------------0---1---|-2----------------------------|
|-3-------------------------|------------------------------|
  Q.     Q.         E   E     Q.     Q.         S S S S


 Verse
  Em                                  Em7/C
   E  E E E  E   E    E      E         E  E E Q.          E      E
|---------0--3----------------------|---------3-------------------------|
|-------0--------0------------------|-------3--------------------3------|
|-----0---------------0-------------|---------------------0-------------|
|--2-------------------------2------|-----2-----------------------------|
|-----------------------------------|--3--------------------------------|
|-----------------------------------|-----------------------------------|
|
|  E  E E E  S S S S  S S    S    S    E  E E E  S S S S  S S    S    S
|---------0--3-----3---------3------|---------3--3-----3---------3------|
|-------0------0------0-----------0-|-------3------3------3-----------3-|
|-----0----------0------0-----------|----------------0------0-----------|
|--2------5-----------2------5------|-----2---5------------------5------|
|-----------------------------------|--3------------------3-------------|
|-----------------------------------|-----------------------------------|
|  Q.     Q.          E      E         Q.     Q.          E      E
|
| Gtr III
|  ~~~                                 ~~~
|                     |----3----|                         |----3----|
|  H.                 E    E    E      H.                 E    E    E
|-----------------------------------|-----------------------------------|
|-----------------------------------|-----------------------------------|
|--------------------11---12--------|--------------------11---12--------|
|-14---------------------------12---|-14---------------------------12---|
|-----------------------------------|-----------------------------------|
|-----------------------------------|-----------------------------------|


  G                              G/B
   E  E E  E  E   E   E    E      E    E E   Q.                 E          E
|-------------3----------------|-------------------------------------------0------------|
|----------3------3------------|-------------0------------------3-----------------------|
|------------------------------|---------0----------------------------------------------|
|-------0----------------------|-------0------------------------------------------------|
|-----2---------------0----1---|--2-----------------------------------------------------|
|--3---------------------------|--------------------------------------------------------|
|
|  E  E E  E  S S S S S S  S S    E    E E   E  S S  S    S     S    S     S    S
|-------------3-----3------3---|----------------0---------0----------------0------------|
|----------3----3-----3------3-|-------------0----3--0----------3----0----------3-------|
|-----------------0-----0------|---------0---------------------------------0------------|
|-------0--5-------------------|-------0-----0------------------0----2----------0-------|
|-----2---------------0----1---|--2-----------------------------------------------------|
|--3---------------------------|--------------------------------------------------------|
|  Q.      Q.         E    E      Q.         Q.                 S    S     S    S
|
|  ~~~
|                                                    |--------------3--------------|
|  Q.      H               E      Q.        +Q       S  S    S  S  S    S  S  S    S
|------------------------------|------------------------------------------12------------|
|------------------------------|--------------------12---------15-12---------15---12----|
|-------------------------12---|-14b16-----(14)--------14---12---------14---------------|
|-14------12-------------------|--------------------------------------------------------|
|------------------------------|--------------------------------------------------------|
|------------------------------|--------------------------------------------------------|


  Em                                    Em7/C
   E    E E Q      E    E      E         E    E E Q.          E      S    S
|-----------3-------------------------|-----------3-----------3------x----3-|
|---------0--------0------------------|---------3-------------3------x----3-|
|-------0---------------0-------------|-----------------------0------x----x-|
|--2---------------------------2------|-------2-----------------------------|
|-------------------------------------|--3----------------------------------|
|-------------------------------------|-------------------------------------|
|
|  E    E E E  S S S S  S S    S    S    E    E E E  S S S S  S S    S    S
|-----------0--3-----3---------3------|-----------3--3-----3---------3------|
|---------0------0------0-----------0-|---------3------3------3-----------3-|
|-------0----------0------0-----------|------------------0------0-----------|
|--2--------5-----------2------5------|-------2---5------------------5------|
|-------------------------------------|--3--------------------3-------------|
|-------------------------------------|-------------------------------------|
|  Q.       Q.          E      E         Q.       Q.          E      E
|
|                       |----3----|                           |----3----|
|  H.                   E    E    E      H.                   E    E    E
|-12-------------------14---15--------|-12-------------------14---15--------|
|-15b17--------------------------15---|-15b17--------------------------15---|
|-------------------------------------|-------------------------------------|
|-------------------------------------|-------------------------------------|
|-------------------------------------|-------------------------------------|
|-------------------------------------|-------------------------------------|


  G                                 G/B
   E    E E   E  E   E   E    E      E    E     E    Q.                    E     E
|----------------3----------------|----------------------------------------------3-------|
|-------------3------3------------|------------------0---------------------3-------------|
|---------------------------------|-------------0----------------------------------------|
|---------0-----------------------|-------0----------------------------------------------|
|-------2----------------0----1---|--2---------------------------------------------------|
|--3------------------------------|------------------------------------------------------|
|
|  E    E E   E  S S S S S S  S S    E    E     E    E      S S    S    S  S  S  S  S
|----------------3-----3------3---|-------------------------3----------------------------|
|-------------3----3-----3------3-|------------------0--------3---------------------3----|
|--------------------0-----0------|-------------0------------------0-------------0-------|
|---------0---5-------------------|-------0-----------------------------0-----0----------|
|-------2----------------0----1---|--2-------------------------------------2-------------|
|--3------------------------------|------------------------------------------------------|
|  Q.         Q.         E    E
|
|                                    |---3---|  |---3----|  |----3----|
|  Q.        +H               E      E  E    E  E  E     E  E    E    E    S  S  S  S
|----------------------------15---|-17-15---14-15-14----12-14---12--------12-------------|
|-15b17-----(15)------------------|----------------------------------15------15-12-------|
|---------------------------------|------------------------------------------------12----|
|---------------------------------|------------------------------------------------------|
|---------------------------------|------------------------------------------------------|
|---------------------------------|------------------------------------------------------|


 Chorus
  Am                        C              G               Em
      Q        E    S S S S E   E    E     Q   E   S S S S E E       E
|---------------------0-x-0-0---0----0---|-----------3-x-0-0---------0---|
|-----1--------1----1-1-x-1-1---1----1---|-----3---3-3-x-0-0-0-------0---|
|-----2--------2----2-2-x-0-0---0----0---|-0---0---0-0-x-0-0-0-------0---|
|-----2--------2----2-2-x-2-2---2----2---|-0---0---0-0-x-0-2-2-------2---|
|-----0--------0----0-0-x-0-3---3----3---|-2---2---2-2-x---2-2-------2---|
|----------------------------------------|-3---3---3-3-x---0-0-------0---|
|
|     E   E    S  S S S E   E   S  S E     E E S S S S E   E S    S  S S
|--------------0----------------0--------|-----3-----------------------0-|
|-----------------1---1------------1-----|-------3-------------------0---|
|-------------------2----------------0---|---------0--------------2------|
|---------2-----------------2------------|-----------0-------2-----------|
|-----0-----------------3----------------|---2-------------2-------------|
|----------------------------------------|-3-----------0-----------------|
|
|     |--3--|
| a a E E   E +H              a E.     S   E H             E S   +S  E
|-----8-7---5-(5)------------------------|-------------------------------|
|---x------------------------------------|---8-------------8-------------|
|-x---------------------------5h7------5-|-7-----------------7b9r(7)-5---|
|----------------------------------------|-------------------------------|
|----------------------------------------|-------------------------------|
|----------------------------------------|-------------------------------|


       Am                   C             G                Em
        Q    E   S S  S   S E E       E   Q    E   S S S S  E    E    E
|------------------0--x---0-0-0-------0-|------------3-x-0--0-----------------|
|-------1----1---1-1--x---1-1-1-------1-|------3---3-3-x-0--0----0----0-------|
|-------2----2---2-2--x---0-0-0-------0-|-0----0---0-0-x-0--0----0----0-------|
|-------2----2---2-2--x---2-2-2-------2-|-0----0---0-0-x-0--2----2----2-------|
|-------0----0---0-0--x---0-3-3-------3-|-2----2---2-2-x----2----2----2-------|
|---------------------------------------|-3----3---3-3-x----0----0----0-------|
|
|       E  E S S S S  E     E S    S  E   E  E S S S S E    E    S S  S  S
|------------0----------------0---------|------3-------------------------0----|
|--------------1---1---------------1----|--------3--------------------0-------|
|----------------2--------------------0-|----------0---------------2----------|
|----------2----------------2-----------|------------0-----------2------------|
|-------0-------------3-----------------|----2--------------2-----------------|
|---------------------------------------|-3------------0----------------------|
|
|       ~~~~~~~~~~~~~~~~~~                ~~
| a    +H            +E     E S   +S  E   Q.       S S S S +S  S S S +S  S
|---------------------------------------|-------------------------------------|
|---------------------------8-----------|-------------------------------------|
|-7b9==(7)-----------(7)r-----7b9r(7)-5-|-4--------4-4-4s2-(2)-2-2p0-(0)-0----|
|---------------------------------------|-------------------------------------|
|---------------------------------------|-------------------------------------|
|---------------------------------------|-------------------------------------|


  Am                        C              G               Em
      Q        E    S S S S E   E    E     Q   E   S S S S E E       E
|---------------------0-x-0-0---0----0---|-----------3-x-0-0---------0---|
|-----1--------1----1-1-x-1-1---1----1---|-----3---3-3-x-0-0-0-------0---|
|-----2--------2----2-2-x-0-0---0----0---|-0---0---0-0-x-0-0-0-------0---|
|-----2--------2----2-2-x-2-2---2----2---|-0---0---0-0-x-0-2-2-------2---|
|-----0--------0----0-0-x-0-3---3----3---|-2---2---2-2-x---2-2-------2---|
|----------------------------------------|-3---3---3-3-x---0-0-------0---|
|
|     E   E    S  S S S E   E   S  S E     E E S S S S E   E S    S  S S
|--------------0----------------0--------|-----3-----------------------0-|
|-----------------1---1------------1-----|-------3-------------------0---|
|-------------------2----------------0---|---------0--------------2------|
|---------2-----------------2------------|-----------0-------2-----------|
|-----0-----------------3----------------|---2-------------2-------------|
|----------------------------------------|-3-----------0-----------------|
|
|     |--3--|
| a a E E   E +H              a E.     S   E H             E S   +S  E
|-----8-7---5-(5)------------------------|-------------------------------|
|---x------------------------------------|---8-------------8-------------|
|-x---------------------------5h7------5-|-7-----------------7b9r(7)-5---|
|----------------------------------------|-------------------------------|
|----------------------------------------|-------------------------------|
|----------------------------------------|-------------------------------|


       Am                   C             G                    Em
        Q    E   S S  S   S E E       E   Q    E   S   S   S S E     E   E
|------------------0--x---0-0-0-------0-|--------------3---x-0-0--------------|
|-------1----1---1-1--x---1-1-1-------1-|------3---3---3---x-0-0-----0---0----|
|-------2----2---2-2--x---0-0-0-------0-|-0----0---0---0---x-0-0-----0---0----|
|-------2----2---2-2--x---2-2-2-------2-|-0----0---0---0---x-0-2-----2---2----|
|-------0----0---0-0--x---0-3-3-------3-|-2----2---2---2---x---2-----2---2----|
|---------------------------------------|-3----3---3---3---x---0-----0---0----|
|
|       E  E S S S S  E     E S    S  E   E  E S S S   S   E   E     S S S S
|------------0----------------0---------|------3---------------------------0--|
|--------------1---1---------------1----|--------3-----------------------0----|
|----------------2--------------------0-|----------0-------------------2------|
|----------2----------------2-----------|--------------0-------------2--------|
|-------0-------------3-----------------|----2-----------------2--------------|
|---------------------------------------|-3----------------0------------------|
|
|       ~~~~~~~~~~~~~~~~~~                ~~
|                                                  |--3--|     |-3-|
| a    +H            +E     E S   +S  E   Q.       S S   S E   S S S Q
|---------------------------------------|-------------------------------------|
|---------------------------8-----------|-------------------------------------|
|-7b9==(7)-----------(7)r-----7b9r(7)-5-|-4--------4h5p==4s2---2h4p2p0--------|
|---------------------------------------|-------------------------------------|
|---------------------------------------|-------------------------------------|
|---------------------------------------|-------------------------------------|


 Pre-Verse
  Am                                C
  S S S S S S S S S S S S S S S S   S S S S S S S S S S S S S S S S
|---------0-------3-----0---------|---------0-------3-----0---------|
|-------1---1-------1-----1---1---|-------1---1-------1-----1---1---|
|-----2-------2-------2-----2---2-|-----0-------0-------0-----0---0-|
|---2-----------2-----------------|---2-----------2-----------------|
|-0-------------------------------|-3-------------------------------|
|---------------------------------|---------------------------------|
|
| >
| W                                 W
|---------------------------------|---------------------------------|
|-1-------------------------------|---------------------------------|
|-2-------------------------------|---------------------------------|
|-2-------------------------------|---------------------------------|
|-0-------------------------------|---------------------------------|
|---------------------------------|---------------------------------|
|
| >
| W                                 W
|---------------------------------|---------------------------------|
|---------------------------------|---------------------------------|
|-2-------------------------------|---------------------------------|
|---------------------------------|---------------------------------|
|---------------------------------|---------------------------------|
|---------------------------------|---------------------------------|


  G                                 Em              F
  S S S S S S S S S S S S S S S S   S S S S S S S S S S S S S S S S
|---------3-------3-----0---------|------------------------------------|
|-------0---0-------0-----0---0---|---------0---------------1----------|
|-------------0-------0-----0---0-|-------0---0---0-------2---2---2----|
|-----0---------0-----------------|-----2-------2-------3-------3------|
|---2-----------------------------|---2---------------3----------------|
|-3-------------------------------|-0---------------1------------------|
|
| W                                 W
|---------------------------------|------------------------------------|
|---------------------------------|------------------------------------|
|---------------------------------|------------------------------------|
|---------------------------------|------------------------------------|
|---------------------------------|------------------------------------|
|---------------------------------|------------------------------------|
|
| W                                 W
|---------------------------------|------------------------------------|
|---------------------------------|------------------------------------|
|---------------------------------|------------------------------------|
|---------------------------------|------------------------------------|
|---------------------------------|------------------------------------|
|---------------------------------|------------------------------------|


  Am                                 C
  S S S S S S S S S  S S S S S S S   S S S S S S S S S  S S S S S S S
|---------0-------3------0---------|---------0-------3------0---------|
|-------1---1--------1-----1---1---|-------1---1--------1-----1---1---|
|-----2-------2--------2-----2---2-|-----0-------0--------0-----0---0-|
|---2-----------2------------------|---2-----------2------------------|
|-0--------------------------------|-3--------------------------------|
|----------------------------------|----------------------------------|
|
| Q       Q       Q.           E     Q       Q       Q.           E
|-----------------3------------0---|-----------------3------------0---|
|-----------------1------------1---|-----------------1------------1---|
|-2-------2-------2------------2---|-0-------0-------0------------0---|
|-2-------2------------------------|-2-------2------------------------|
|-0-------0------------------------|-3-------3------------------------|
|----------------------------------|----------------------------------|
|
| W                                  W
|----------------------------------|----------------------------------|
|----------------------------------|----------------------------------|
|----------------------------------|----------------------------------|
|----------------------------------|----------------------------------|
|----------------------------------|----------------------------------|
|----------------------------------|----------------------------------|


  G                                  Em              F
  S S S S S S S S S  S S S S S S S   S S S S S S S S  S S  S S  S S  S S
|---------3-------3------0---------|----------------------------------------|
|-------0---0--------0-----0---0---|---------0------------------1-----------|
|-------------0--------0-----0---0-|-------0---0---0---------2----2----2----|
|-----0---------0------------------|-----2-------2---------3---------3------|
|---2------------------------------|---2----------------3-------------------|
|-3--------------------------------|-0----------------1---------------------|
|
| Q       Q       Q.           E     Q       Q        Q         Q
|-----------------3------------0---|----------------------------------------|
|-----------------0------------0---|---------0------------------1-----------|
|-----------------0------------0---|---------0------------------2-----------|
|-0-------0------------------------|-2-------2--------3---------3-----------|
|-2-------2------------------------|-2----------------3---------------------|
|-3-------3------------------------|-0----------------1---------------------|
|
| W                                  H                E    E    E    E
|----------------------------------|----------------------------------------|
|----------------------------------|----------------------12---13---15------|
|----------------------------------|-----------------14---------------------|
|----------------------------------|----------------------------------------|
|----------------------------------|----------------------------------------|
|----------------------------------|----------------------------------------|


 Verse
  Am
   S S S    S S S    S S  S  S S    S S S    S S
|-------------0-----------3---------0------------|
|-----------1---1------------1--------1------1---|
|------2-------------2---------2--------2------2-|
|----2-----------------2-------------------------|
|--0---------------------------------------------|
|------------------------------------------------|
|
|  Q          Q           Q.                 E
|-------------------------3------------------0---|
|-------------------------1------------------1---|
|--2----------2-----------2------------------2---|
|--2----------2----------------------------------|
|--0----------0----------------------------------|
|------------------------------------------------|
|
|  ~~~~~~~~~~~~~~~~~~~~~~~~~~~~~~~~~~~~~~~~~~~~~~~
|  |-------3-------|      |-------3--------|
|  Q      Q        Q      Q       Q        Q
|------------------------------------------------|
|-17-----15-------13-----15------13-------12-----|
|------------------------------------------------|
|------------------------------------------------|
|------------------------------------------------|
|------------------------------------------------|


  C
   S S S    S S S    S S  S  S  S S  S S  S S
|-------------0-----------3-------0-----------|
|-----------1---1------------1-------1----1---|
|------0-------------0----------0------0----0-|
|----2-----------------2----------------------|
|--3------------------------------------------|
|---------------------------------------------|
|
|  Q          Q           Q.              E
|-------------------------3---------------0---|
|-------------------------1---------------1---|
|--0----------0-----------0---------------0---|
|--2----------2-------------------------------|
|--3----------3-------------------------------|
|---------------------------------------------|
|
|~~~~~~~~~~~~~~~~~~~~
|  |-------3-------|
|  Q      Q        Q      E     E    E    E
|---------------------------------------------|
|-13-----12--------------12-------------------|
|-----------------14-----------12--------12---|
|-----------------------------------14--------|
|---------------------------------------------|
|---------------------------------------------|


  G
   S  S S S S S S S S  S S S   S  S  S  S
|-----------3-------3------0--------------|
|---------0---0--------0-------0-----0----|
|---------------0--------0--------0-----0-|
|-------0---------0-----------------------|
|-----2-----------------------------------|
|--3--------------------------------------|
|
|  Q        Q       Q.               E
|-------------------3----------------0----|
|-------------------0----------------0----|
|-------------------0----------------0----|
|--0--------0-----------------------------|
|--2--------2-----------------------------|
|--3--------3-----------------------------|
|
|  ~~~~~~~~~~~~~~~~~~~~~~~~~~~~~~~
|  H.                         +E     S  S
|-----------------------------------------|
|-12-------------------------(12)---13-12-|
|-12-------------------------(12)---------|
|-----------------------------------------|
|-----------------------------------------|
|-----------------------------------------|


  Em                  F
   S  S S S S S  S  S  S S    S    S  S S    S    S
|---------------------------------------------------|
|-----------0-------------------------1-------------|
|---------0---0-----0--------------2----2---------2-|
|-------2--------2------------3--------------3------|
|-----2------------------3--------------------------|
|--0-------------------1----------------------------|
|
|  Q        Q          Q              Q
|---------------------------------------------------|
|-----------0-------------------------1-------------|
|-----------0-------------------------2-------------|
|--2--------2----------3--------------3-------------|
|--2-------------------3----------------------------|
|--0-------------------1----------------------------|
|
|  ~~~                 ~~
|                      |----3----|    |----3----|
|  Q.            S  S  E    E    E    E    E    E
|---------------------------------------------------|
|---------------13-12------12---13---15---13---12---|
|-12------------------14----------------------------|
|---------------------------------------------------|
|---------------------------------------------------|
|---------------------------------------------------|


  Am
   S S S    S S S    S S  S  S S    S S S    S S
|-------------0-----------3---------0------------|
|-----------1---1------------1--------1------1---|
|------2-------------2---------2--------2------2-|
|----2-----------------2-------------------------|
|--0---------------------------------------------|
|------------------------------------------------|
|
|  Q          Q           Q.                 E
|-------------------------3------------------0---|
|-------------------------1------------------1---|
|--2----------2-----------2------------------2---|
|--2----------2----------------------------------|
|--0----------0----------------------------------|
|------------------------------------------------|
|
|  ~~~~~~~~~~~~~~~~~~~~~~~~~~~~~~~~~~~~~~~~~~~~~~~
|  |-------3-------|      |-------3--------|
|  Q      Q        Q      Q       Q        Q
|-15-----13-------12-----13------12-------10-----|
|------------------------------------------------|
|-12-----10--------9-----10-------9--------7-----|
|------------------------------------------------|
|------------------------------------------------|
|------------------------------------------------|


  C
   S S S    S S S    S S  S  S  S S  S S  S S
|-------------0-----------3-------0-----------|
|-----------1---1------------1-------1----1---|
|------0-------------0----------0------0----0-|
|----2-----------------2----------------------|
|--3------------------------------------------|
|---------------------------------------------|
|
|  Q          Q           Q.              E
|-------------------------3---------------0---|
|-------------------------1---------------1---|
|--0----------0-----------0---------------0---|
|--2----------2-------------------------------|
|--3----------3-------------------------------|
|---------------------------------------------|
|
|~~~~~~~~~~~~~~~~~~~~
|  |-------3-------|
|  Q      Q        Q      E     E    E    E
|-12-----10--------------10-------------------|
|-----------------13-----------12--------12---|
|--9------7---------------7---------12--------|
|-----------------10------------9---------9---|
|-----------------------------------10--------|
|---------------------------------------------|


  G
   S  S S S S S S S S  S S S   S  S  S  S
|-----------3-------3------0--------------|
|---------0---0--------0-------0-----0----|
|---------------0--------0--------0-----0-|
|-------0---------0-----------------------|
|-----2-----------------------------------|
|--3--------------------------------------|
|
|  Q        Q       Q.               E
|-------------------3----------------0----|
|-------------------0----------------0----|
|-------------------0----------------0----|
|--0--------0-----------------------------|
|--2--------2-----------------------------|
|--3--------3-----------------------------|
|
|  ~~~
|  H.                         +E     S  S
|-----------------------------------------|
|-12-------------------------(12)---13-12-|
|-12-------------------------(12)---------|
|-----------------------------------------|
|-----------------------------------------|
|-----------------------------------12-15-|


  Em                  F
   S  S S S S S  S  S  S S S S  S S  S S
|----------------------------------------|
|-----------0-------------------1--------|
|---------0---0-----0--------2----2----2-|
|-------2--------2---------3---------3---|
|-----2------------------3---------------|
|--0-------------------1-----------------|
|
|  Q        Q          Q        Q
|----------------------------------------|
|-----------0-------------------1--------|
|-----------0-------------------2--------|
|--2--------2----------3--------3--------|
|--2-------------------3-----------------|
|--0-------------------1-----------------|
|
|  ~~~                 ~~
|  Q.            S  S  Q        E    E
|----------------------------------------|
|---------------13-12--------------------|
|-12------------------14-------16---17---|
|----------------------------------------|
|-14------------------12-------14---15---|
|---------------12-15--------------------|


  Am
   S S S    S S S    S S  S  S S    S S S    S S
|-------------0-----------3---------0------------|
|-----------1---1------------1--------1------1---|
|------2-------------2---------2--------2------2-|
|----2-----------------2-------------------------|
|--0---------------------------------------------|
|------------------------------------------------|
|
|  Q          Q           Q.                 E
|-------------------------3------------------0---|
|-------------------------1------------------1---|
|--2----------2-----------2------------------2---|
|--2----------2----------------------------------|
|--0----------0----------------------------------|
|------------------------------------------------|
|
|  ~~~~~~~~~~~~~~~~~~~~~~~~~~~~~~~~~~~~~~~~~~~~~~~
|  |-------3-------|      |-------3--------|
|  Q      Q        Q      Q       Q        Q
|-15-----13-------12-----13------12-------10-----|
|-17-----15-------13-----15------13-------12-----|
|------------------------------------------------|
|------------------------------------------------|
|------------------------------------------------|
|------------------------------------------------|


  C
   S S S    S S S    S S  S  S  S S  S S  S S
|-------------0-----------3-------0-----------|
|-----------1---1------------1-------1----1---|
|------0-------------0----------0------0----0-|
|----2-----------------2----------------------|
|--3------------------------------------------|
|---------------------------------------------|
|
|  Q          Q           Q.              E
|-------------------------3---------------0---|
|-------------------------1---------------1---|
|--0----------0-----------0---------------0---|
|--2----------2-------------------------------|
|--3----------3-------------------------------|
|---------------------------------------------|
|
|~~~~~~~~~~~~~~~~~~~~
|  |-------3-------|
|  Q      Q        Q      E     E    E    E
|-12-----10--------------10-------------------|
|-13-----12-------13-----12----12--------12---|
|-----------------14-----------12---12---12---|
|-----------------------------------14--------|
|---------------------------------------------|
|---------------------------------------------|


  G
   S  S S S S S S S S  S S S   S  S  S  S
|-----------3-------3------0--------------|
|---------0---0--------0-------0-----0----|
|---------------0--------0--------0-----0-|
|-------0---------0-----------------------|
|-----2-----------------------------------|
|--3--------------------------------------|
|
|  Q        Q       Q.               E
|-------------------3----------------0----|
|-------------------0----------------0----|
|-------------------0----------------0----|
|--0--------0-----------------------------|
|--2--------2-----------------------------|
|--3--------3-----------------------------|
|
|  ~~~
|  H.                         +E     S  S
|-----------------------------------15-17-|
|-12-------------------------(12)---13-12-|
|-12-------------------------(12)---------|
|-----------------------------------------|
|-----------------------------------------|
|-----------------------------------------|


  Em                  F
   S  S S S S S  S  S  E        E         E         E
|-----------------------------------------------------------|
|-----------0-----------------------------------------------|
|---------0---0-----0-------------------------------2-------|
|-------2--------2------------------------3-----------------|
|-----2-------------------------3---------------------------|
|--0-------------------1------------------------------------|
|
|  Q        Q          S   S    S    S    S    S    S    S
|-----------------------------------------------------------|
|-----------0-----------------------------1-----------------|
|-----------0------------------------2---------2------------|
|--2--------2-------------------3-------------------3-------|
|--2-----------------------3-----------------------------3--|
|--0-------------------1------------------------------------|
|
|  ~~~                 ~~
|  Q.            S  S  S   S    S    S    S    S    S    S
|-19------------17-19-20--19---17---15---12-----------------|
|---------------13-12-------------------------15---13---12--|
|-12------------------14-(14)-(14)-(14)-(14)-(14)-(14)-(14)-|
|-----------------------------------------------------------|
|-----------------------------------------------------------|
|-----------------------------------------------------------|


 Chorus
  Am                        C              G               Em
      Q        E    S S S S E   E    E     Q   E   S S S S E E       E
|---------------------0-x-0-0---0----0---|-----------3-x-0-0---------0---|
|-----1--------1----1-1-x-1-1---1----1---|-----3---3-3-x-0-0-0-------0---|
|-----2--------2----2-2-x-0-0---0----0---|-0---0---0-0-x-0-0-0-------0---|
|-----2--------2----2-2-x-2-2---2----2---|-0---0---0-0-x-0-2-2-------2---|
|-----0--------0----0-0-x-0-3---3----3---|-2---2---2-2-x---2-2-------2---|
|----------------------------------------|-3---3---3-3-x---0-0-------0---|
|
|     E   E    S  S S S E   E   S  S E     E E S S S S E   E S    S  S S
|--------------0----------------0--------|-----3-----------------------0-|
|-----------------1---1------------1-----|-------3-------------------0---|
|-------------------2----------------0---|---------0--------------2------|
|---------2-----------------2------------|-----------0-------2-----------|
|-----0-----------------3----------------|---2-------------2-------------|
|----------------------------------------|-3-----------0-----------------|
|
|     |--3--|
| a a E E   E +H              a E.     S   E H             E S   +S  E
|-----8-7---5-(5)------------------------|-------------------------------|
|---x------------------------------------|---8-------------8-------------|
|-x---------------------------5h7------5-|-7-----------------7b9r(7)-5---|
|----------------------------------------|-------------------------------|
|----------------------------------------|-------------------------------|
|----------------------------------------|-------------------------------|


       Am                   C             G            Em
        Q    E   S S  S   S E E       E   Q    E   S S S S  E    E    E
|------------------0--x---0-0-0-------0-|------------3-x-0--0-----------------|
|-------1----1---1-1--x---1-1-1-------1-|------3---3-3-x-0--0----0----0-------|
|-------2----2---2-2--x---0-0-0-------0-|-0----0---0-0-x-0--0----0----0-------|
|-------2----2---2-2--x---2-2-2-------2-|-0----0---0-0-x-0--2----2----2-------|
|-------0----0---0-0--x---0-3-3-------3-|-2----2---2-2-x----2----2----2-------|
|---------------------------------------|-3----3---3-3-x----0----0----0-------|
|
|       E  E S S S S  E     E S    S  E   E  E S S S S E    E    S S  S  S
|------------0----------------0---------|------3-------------------------0----|
|--------------1---1---------------1----|--------3--------------------0-------|
|----------------2--------------------0-|----------0---------------2----------|
|----------2----------------2-----------|------------0-----------2------------|
|-------0-------------3-----------------|----2--------------2-----------------|
|---------------------------------------|-3------------0----------------------|
|
|       ~~~~~~~~~~~~~~~~~~                ~~
| a    +H            +E     E S   +S  E   Q.       S S S S +S  S S S +S  S
|---------------------------------------|-------------------------------------|
|---------------------------8-----------|-------------------------------------|
|-7b9==(7)-----------(7)r-----7b9r(7)-5-|-4--------4-4-4s2-(2)-2-2p0-(0)-0----|
|---------------------------------------|-------------------------------------|
|---------------------------------------|-------------------------------------|
|---------------------------------------|-------------------------------------|


  Am                        C              G               Em
      Q        E    S S S S E   E    E     Q   E   S S S S E E       E
|---------------------0-x-0-0---0----0---|-----------3-x-0-0---------0---|
|-----1--------1----1-1-x-1-1---1----1---|-----3---3-3-x-0-0-0-------0---|
|-----2--------2----2-2-x-0-0---0----0---|-0---0---0-0-x-0-0-0-------0---|
|-----2--------2----2-2-x-2-2---2----2---|-0---0---0-0-x-0-2-2-------2---|
|-----0--------0----0-0-x-0-3---3----3---|-2---2---2-2-x---2-2-------2---|
|----------------------------------------|-3---3---3-3-x---0-0-------0---|
|
|     E   E    S  S S S E   E   S  S E     E E S S S S E   E S    S  S S
|--------------0----------------0--------|-----3-----------------------0-|
|-----------------1---1------------1-----|-------3-------------------0---|
|-------------------2----------------0---|---------0--------------2------|
|---------2-----------------2------------|-----------0-------2-----------|
|-----0-----------------3----------------|---2-------------2-------------|
|----------------------------------------|-3-----------0-----------------|
|
|     |--3--|
| a a E E   E +H              a E.     S   E H             E S   +S  E
|-----8-7---5-(5)------------------------|-------------------------------|
|---x------------------------------------|---8-------------8-------------|
|-x---------------------------5h7------5-|-7-----------------7b9r(7)-5---|
|----------------------------------------|-------------------------------|
|----------------------------------------|-------------------------------|
|----------------------------------------|-------------------------------|


       Am                   C             G                    Em
        Q    E   S S  S   S E E       E   Q    E   S   S   S S E     E   E
|------------------0--x---0-0-0-------0-|--------------3---x-0-0--------------|
|-------1----1---1-1--x---1-1-1-------1-|------3---3---3---x-0-0-----0---0----|
|-------2----2---2-2--x---0-0-0-------0-|-0----0---0---0---x-0-0-----0---0----|
|-------2----2---2-2--x---2-2-2-------2-|-0----0---0---0---x-0-2-----2---2----|
|-------0----0---0-0--x---0-3-3-------3-|-2----2---2---2---x---2-----2---2----|
|---------------------------------------|-3----3---3---3---x---0-----0---0----|
|
|       E  E S S S S  E     E S    S  E   E  E S S S   S   E   E     S S S S
|------------0----------------0---------|------3---------------------------0--|
|--------------1---1---------------1----|--------3-----------------------0----|
|----------------2--------------------0-|----------0-------------------2------|
|----------2----------------2-----------|--------------0-------------2--------|
|-------0-------------3-----------------|----2-----------------2--------------|
|---------------------------------------|-3----------------0------------------|
|
|       ~~~~~~~~~~~~~~~~~~                ~~
|                                                  |--3--|     |-3-|
| a    +H            +E     E S   +S  E   Q.       S S   S E   S S S Q
|---------------------------------------|-------------------------------------|
|---------------------------8-----------|-------------------------------------|
|-7b9==(7)-----------(7)r-----7b9r(7)-5-|-4--------4h5p==4s2---2h4p2p0--------|
|---------------------------------------|-------------------------------------|
|---------------------------------------|-------------------------------------|
|---------------------------------------|-------------------------------------|


 Pre-Verse
  Am                                C
  S S S S S S S S S S S S S S S S   S S S S S S S S S S S S S S S S
|---------0-------3-----0---------|---------0-------3-----0---------|
|-------1---1-------1-----1---1---|-------1---1-------1-----1---1---|
|-----2-------2-------2-----2---2-|-----0-------0-------0-----0---0-|
|---2-----------2-----------------|---2-----------2-----------------|
|-0-------------------------------|-3-------------------------------|
|---------------------------------|---------------------------------|
|
| >                                 >
| W                                 W
|---------------------------------|---------------------------------|
|-1-------------------------------|-1-------------------------------|
|-2-------------------------------|-0-------------------------------|
|-2-------------------------------|-2-------------------------------|
|-0-------------------------------|-3-------------------------------|
|---------------------------------|---------------------------------|
|
| >                                 >
| W                                 W
|---------------------------------|---------------------------------|
|---------------------------------|-1-------------------------------|
|-2-------------------------------|---------------------------------|
|---------------------------------|---------------------------------|
|---------------------------------|---------------------------------|
|---------------------------------|---------------------------------|


  G                                 Em              F
  S S S S S S S S S S S S S S S S   S S S S S S S S S S S S S S S S
|---------3-------3-----0---------|------------------------------------|
|-------0---0-------0-----0---0---|---------0---------------1----------|
|-------------0-------0-----0---0-|-------0---0---0-------2---2---2----|
|-----0---------0-----------------|-----2-------2-------3-------3------|
|---2-----------------------------|---2---------------3----------------|
|-3-------------------------------|-0---------------1------------------|
|
| >                                 >               >
| W                                 H               H
|---------------------------------|------------------------------------|
|---------------------------------|------------------------------------|
|-0-------------------------------|-0---------------2------------------|
|-0-------------------------------|-2---------------3------------------|
|-2-------------------------------|-2---------------3------------------|
|-3-------------------------------|-0---------------1------------------|
|
| >                                 >               >
| W                                 H               H
|---------------------------------|------------------------------------|
|---------------------------------|------------------------------------|
|-0-------------------------------|------------------------------------|
|---------------------------------|-2---------------3------------------|
|---------------------------------|------------------------------------|
|---------------------------------|------------------------------------|


  Am                                C
  S S S S S S S S S S S S S S S S   S S S S S S S S S S S S S S S S
|---------0-------3-----0---------|---------0-------3-----0---------|
|-------1---1-------1-----1---1---|-------1---1-------1-----1---1---|
|-----2-------2-------2-----2---2-|-----0-------0-------0-----0---0-|
|---2-----------2-----------------|---2-----------2-----------------|
|-0-------------------------------|-3-------------------------------|
|---------------------------------|---------------------------------|
|
| Q       Q       Q       Q         Q       Q       Q       Q
|-----------------3-------0-------|-----------------3-------0-------|
|-----------------1-------1-------|-----------------1-------1-------|
|-2-------2-------2-------2-------|-0-------0-------0-------0-------|
|-2-------2-----------------------|-2-------2-----------------------|
|-0-------0-----------------------|-3-------3-----------------------|
|---------------------------------|---------------------------------|
|
| W                                 W
|---------------------------------|---------------------------------|
|---------------------------------|---------------------------------|
|-2-------------------------------|-0-------------------------------|
|---------------------------------|---------------------------------|
|---------------------------------|---------------------------------|
|---------------------------------|---------------------------------|


  G                                  Em              F
  S  S S S S S S S S S S S S S S S   S S S S S S S S S S S S S S S S
|----------3-------3-----0---------|------------------------------------|
|--------0---0-------0-----0---0---|---------0---------------1----------|
|--------------0-------0-----0---0-|-------0---0---0-------2---2---2----|
|------0---------0-----------------|-----2-------2-------3-------3------|
|----2-----------------------------|---2---------------3----------------|
|-3--------------------------------|-0---------------1------------------|
|
| Q        Q       Q       Q         Q       Q       Q       Q
|------------------3-------0-------|------------------------------------|
|------------------0-------0-------|---------0---------------1----------|
|------------------0-------0-------|---------0---------------2----------|
|-0--------0-----------------------|-2-------2-------3-------3----------|
|-2--------2-----------------------|-2---------------3------------------|
|-3--------3-----------------------|-0---------------1------------------|
|
| H.                       Q         H               H
|----------------------------------|------------------------------------|
|----------------------------------|------------------------------------|
|--------------------------0-------|------------------------------------|
|-0--------------------------------|-2---------------3------------------|
|----------------------------------|------------------------------------|
|----------------------------------|------------------------------------|


 Verse
  Am
   S S S    S S S    S S  S S S    S S S    S S
|-------------0-----------3--------0------------|
|-----------1---1-----------1--------1------1---|
|------2-------------2--------2--------2------2-|
|----2-----------------2------------------------|
|--0--------------------------------------------|
|-----------------------------------------------|
|
|  Q          Q           Q          Q
|-------------------------3----------0----------|
|-------------------------1----------1----------|
|--2----------2-----------2----------2----------|
|--2----------2---------------------------------|
|--0----------0---------------------------------|
|-----------------------------------------------|
|
|  ~~~~~~~~~~~~~~~~~~~~~~~~~~~~~~~~~~~~~~~~~~~~~~
|  |-------3-------|      |-------3-------|
|  Q      Q        Q      Q      Q        Q
|-----------------------------------------------|
|-17-----15-------13-----15-----13-------12-----|
|-----------------------------------------------|
|-----------------------------------------------|
|-----------------------------------------------|
|-----------------------------------------------|


  C
   S S S    S S S    S S  S S  S S  S S  S S
|-------------0-----------3------0-----------|
|-----------1---1-----------1-------1----1---|
|------0-------------0---------0------0----0-|
|----2-----------------2---------------------|
|--3-----------------------------------------|
|--------------------------------------------|
|
|  Q          Q           Q         Q
|-------------------------3---------0--------|
|-------------------------1---------1--------|
|--0----------0-----------0---------0--------|
|--2----------2------------------------------|
|--3----------3------------------------------|
|--------------------------------------------|
|
|~~~~~~~~~~~~~~~~~~~~
|  |-------3-------|
|  Q      Q        Q      E    E    E    E
|--------------------------------------------|
|-13-----12--------------12------------------|
|-----------------14----------12--------12---|
|----------------------------------14--------|
|--------------------------------------------|
|--------------------------------------------|


  G
   S  S S S S S S S S S S S   S  S  S  S
|-----------3-------3-----0--------------|
|---------0---0-------0-------0-----0----|
|---------------0-------0--------0-----0-|
|-------0---------0----------------------|
|-----2----------------------------------|
|--3-------------------------------------|
|
|  Q        Q       Q         Q
|-------------------3---------0----------|
|-------------------0---------0----------|
|-------------------0---------0----------|
|--0--------0----------------------------|
|--2--------2----------------------------|
|--3--------3----------------------------|
|
|  ~~~~~~~~~~~~~~~~~~~~~~~~~~~~~~
|  H.                        +E     S  S
|----------------------------------------|
|-12------------------------(12)---13-12-|
|-12------------------------(12)---------|
|----------------------------------------|
|----------------------------------------|
|----------------------------------------|


  Em                  F
   S  S S S S S  S  S  S S    S    S  S S    S    S
|---------------------------------------------------|
|-----------0-------------------------1-------------|
|---------0---0-----0--------------2----2---------2-|
|-------2--------2------------3--------------3------|
|-----2------------------3--------------------------|
|--0-------------------1----------------------------|
|
|  Q        Q          Q              Q
|---------------------------------------------------|
|-----------0-------------------------1-------------|
|-----------0-------------------------2-------------|
|--2--------2----------3--------------3-------------|
|--2-------------------3----------------------------|
|--0-------------------1----------------------------|
|
|  ~~~                 ~~
|                      |----3----|    |----3----|
|  Q.            S  S  E    E    E    E    E    E
|---------------------------------------------------|
|---------------13-12------12---13---15---13---12---|
|-12------------------14----------------------------|
|---------------------------------------------------|
|---------------------------------------------------|
|---------------------------------------------------|


  Am
   S S S    S S S    S S  S S S    S S S    S S
|-------------0-----------3--------0------------|
|-----------1---1-----------1--------1------1---|
|------2-------------2--------2--------2------2-|
|----2-----------------2------------------------|
|--0--------------------------------------------|
|-----------------------------------------------|
|
|  Q          Q           Q          Q
|-------------------------3----------0----------|
|-------------------------1----------1----------|
|--2----------2-----------2----------2----------|
|--2----------2---------------------------------|
|--0----------0---------------------------------|
|-----------------------------------------------|
|
|  ~~~~~~~~~~~~~~~~~~~~~~~~~~~~~~~~~~~~~~~~~~~~~~
|  |-------3-------|      |-------3-------|
|  Q      Q        Q      Q      Q        Q
|-15-----13-------12-----13-----12-------10-----|
|-----------------------------------------------|
|-12-----10--------9-----10------9--------7-----|
|-----------------------------------------------|
|-----------------------------------------------|
|-----------------------------------------------|


  C
   S S S    S S S    S S  S S  S S  S S  S S
|-------------0-----------3------0-----------|
|-----------1---1-----------1-------1----1---|
|------0-------------0---------0------0----0-|
|----2-----------------2---------------------|
|--3-----------------------------------------|
|--------------------------------------------|
|
|  Q          Q           Q         Q
|-------------------------3---------0--------|
|-------------------------1---------1--------|
|--0----------0-----------0---------0--------|
|--2----------2------------------------------|
|--3----------3------------------------------|
|--------------------------------------------|
|
|~~~~~~~~~~~~~~~~~~~~
|  |-------3-------|
|  Q      Q        Q      E    E    E    E
|-12-----10--------------10------------------|
|-----------------13----------12--------12---|
|--9------7---------------7--------12--------|
|-----------------10-----------9---------9---|
|----------------------------------10--------|
|--------------------------------------------|


  G
   S  S S S S S S S S S S S   S  S  S  S
|-----------3-------3-----0--------------|
|---------0---0-------0-------0-----0----|
|---------------0-------0--------0-----0-|
|-------0---------0----------------------|
|-----2----------------------------------|
|--3-------------------------------------|
|
|  Q        Q       Q         Q
|-------------------3---------0----------|
|-------------------0---------0----------|
|-------------------0---------0----------|
|--0--------0----------------------------|
|--2--------2----------------------------|
|--3--------3----------------------------|
|
|  ~~~
|  H.                        +E     S  S
|----------------------------------------|
|-12------------------------(12)---13-12-|
|-12------------------------(12)---------|
|----------------------------------------|
|----------------------------------------|
|----------------------------------12-15-|


  Em                  F
   S  S S S S S  S  S  S S S S  S S  S S
|----------------------------------------|
|-----------0-------------------1--------|
|---------0---0-----0--------2----2----2-|
|-------2--------2---------3---------3---|
|-----2------------------3---------------|
|--0-------------------1-----------------|
|
|  Q        Q          Q        Q
|----------------------------------------|
|-----------0-------------------1--------|
|-----------0-------------------2--------|
|--2--------2----------3--------3--------|
|--2-------------------3-----------------|
|--0-------------------1-----------------|
|
|  ~~~                 ~~
|  Q.            S  S  Q        E    E
|----------------------------------------|
|---------------13-12--------------------|
|-12------------------14-------16---17---|
|----------------------------------------|
|-14------------------12-------14---15---|
|---------------12-15--------------------|


  Am                                      C
   E E    S S    S S  S S S    S E    E    E E    S S    S S  S S  S S  E  E
|---------0-----------3--------0--------|---------0-----------3------0--------|
|-----------1-----------1--------1------|-----------1-----------1-------1-----|
|----2-----------2--------2-----------2-|----0-----------0---------0-------0--|
|------------------2--------------------|------------------2------------------|
|--0------------------------------------|--3----------------------------------|
|---------------------------------------|-------------------------------------|
|
|  Q      Q           Q          Q         Q      Q           Q         Q
|---------------------3----------0------|---------------------3---------0-----|
|---------------------1----------1------|---------------------1---------1-----|
|--2------2-----------2----------2------|--0------0-----------0---------0-----|
|--2------2-----------------------------|--2------2---------------------------|
|--0------0-----------------------------|--3------3---------------------------|
|---------------------------------------|-------------------------------------|
|
|  ~~~~~~~~~~~~~~~~~~~~~~~~~~~~~~~~~~~~~~~~~~~~~~~~~~~~~~
|  |-----3-----|      |------3------|      |-----3-----|
|  Q    Q      Q      Q      Q      Q      Q    Q      Q      E    E    E  E
|-15---13-----12-----13-----12-----10---|-12---10------------10---------------|
|-17---15-----13-----15-----13-----12---|-13---12-----13-----12---12------12--|
|---------------------------------------|-------------14----------12---12-12--|
|---------------------------------------|------------------------------14-----|
|---------------------------------------|-------------------------------------|
|---------------------------------------|-------------------------------------|


  G                                  Em            G
   E  E S S S S S S S S   E   E       E  E E  E     E    E   S S   S  S
|-------3-------3-----0------------|-------------------------------------|
|---------0-------0-------0--------|-------------------------------------|
|-----------0-------0---------0----|-------0-----------------0--------0--|
|-----0-------0--------------------|-----2----2----------0-----0---------|
|----------------------------------|----------------2--------------2-----|
|--3-------------------------------|--0----------------------------------|
|
|  Q    Q       Q         Q           E  E E  E     S  S S S S S   S  S
|---------------3---------0--------|----------------3--------------------|
|---------------0---------0--------|----------0--------3--------------3--|
|---------------0---------0--------|-------0-------------0---------0-----|
|--0----0--------------------------|-----2-----------------0---0---------|
|--2----2--------------------------|--2----------------------2-----------|
|--3----3--------------------------|-------------------------------------|
|
|  ~~~~~~~~~~~~~~~~~~~~~~~~~~         ~~~           ~~~
|  H.                    +E   S  S    Q.      S  S  Q.             E
|----------------------------15-17-|-19------17-19-22------------(22)----|
|-12--------------------(12)-13-12-|---------13-12-----------------------|
|-12--------------------(12)-------|-12------------12--------------------|
|----------------------------------|------------------------------12-----|
|----------------------------------|-------------------------------------|
|----------------------------------|-------------------------------------|


 Interlude
  Em                                  Em7/C
   E  E E Q      E    E      E         E  E E Q.          E      S    S
|---------3-------------------------|---------3-----------3------x----3-|
|-------0--------0------------------|-------3-------------3------x----3-|
|-----0---------------0-------------|---------------------0------x----x-|
|--2-------------------------2------|-----2-----------------------------|
|-----------------------------------|--3--------------------------------|
|-----------------------------------|-----------------------------------|
|
|  E  E E E  S S S S  S S    S    S    E  E E E  S S S S  S S    S    S
|---------0--3-----3---------3------|---------3--3-----3---------3------|
|-------0------0------0-----------0-|-------3------3------3-----------3-|
|-----0----------0------0-----------|----------------0------0-----------|
|--2------5-----------2------5------|-----2---5------------------5------|
|-----------------------------------|--3------------------3-------------|
|-----------------------------------|-----------------------------------|
|  Q.     Q.          E      E         Q.     Q.          E      E
|
|  ~~~                                 ~~~
|                     |----3----|                         |----3----|
|  H.                 E    E    E      H.                 E    E    E
|-----------------------------------|-----------------------------------|
|-----------------------------------|-----------------------------------|
|--------------------11---12--------|--------------------11---12--------|
|-14---------------------------12---|-14---------------------------12---|
|-----------------------------------|-----------------------------------|
|-----------------------------------|-----------------------------------|


  G                              G/B
   E  E E  E  E   E   E    E      E    E E   Q.                 E          E
|-------------3----------------|-------------------------------------------3------------|
|----------3------3------------|-------------0------------------3-----------------------|
|------------------------------|---------0----------------------------------------------|
|-------0----------------------|-------0------------------------------------------------|
|-----2---------------0----1---|--2-----------------------------------------------------|
|--3---------------------------|--------------------------------------------------------|
|
|  E  E E  E  S S S S S S  S S    E    E E   E  S S  S    S     S    S     S    S
|-------------3-----3------3---|----------------0---------0----------------0------------|
|----------3----3-----3------3-|-------------0----3--0----------3----0----------3-------|
|-----------------0-----0------|---------0---------------------------------0------------|
|-------0--5-------------------|-------0-----0------------------0----2----------0-------|
|-----2---------------0----1---|--2-----------------------------------------------------|
|--3---------------------------|--------------------------------------------------------|
|  Q.      Q.         E    E      Q.         Q.                 S    S     S    S
|
|  ~~~
|                                                    |--------------3--------------|
|  Q.      H               E      Q.        +Q       S  S    S  S  S    S  S  S    S
|------------------------------|------------------------------------------12------------|
|------------------------------|--------------------12---------15-12---------15---12----|
|-------------------------12---|-14b16-----(14)--------14---12---------14---------------|
|-14------12-------------------|--------------------------------------------------------|
|------------------------------|--------------------------------------------------------|
|------------------------------|--------------------------------------------------------|


  Em                                    Em7/C
   E    E E Q      E    E      E         E    E E Q.          E      S    S
|-----------3-------------------------|-----------3-----------3------x----3-|
|---------0--------0------------------|---------3-------------3------x----3-|
|-------0---------------0-------------|-----------------------0------x----x-|
|--2---------------------------2------|-------2-----------------------------|
|-------------------------------------|--3----------------------------------|
|-------------------------------------|-------------------------------------|
|
|  E    E E E  S S S S  S S    S    S    E    E E E  S S S S  S S    S    S
|-----------0--3-----3---------3------|-----------3--3-----3---------3------|
|---------0------0------0-----------0-|---------3------3------3-----------3-|
|-------0----------0------0-----------|------------------0------0-----------|
|--2--------5-----------2------5------|-------2---5------------------5------|
|-------------------------------------|--3--------------------3-------------|
|-------------------------------------|-------------------------------------|
|  Q.       Q.          E      E         Q.       Q.          E      E
|
|                       |----3----|                           |----3----|
|  H.                   E    E    E      H.                   E    E    E
|-12-------------------14---15--------|-12-------------------14---15--------|
|-15b17--------------------------15---|-15b17--------------------------15---|
|-------------------------------------|-------------------------------------|
|-------------------------------------|-------------------------------------|
|-------------------------------------|-------------------------------------|
|-------------------------------------|-------------------------------------|


  G                                 G/B
   E    E E   E  E   E   E    E      E    E     E    Q.                    E     E
|----------------3----------------|----------------------------------------------3-------|
|-------------3------3------------|------------------0---------------------3-----3-------|
|---------------------------------|-------------0--------------------------0-----0-------|
|---------0-----------------------|-------0--------------------------------0-----0-------|
|-------2----------------0----1---|--2-------------------------------------2-----2-------|
|--3------------------------------|----------------------------------------3-----3-------|
|
|  E    E E   E  S S S S S S  S S    E    E     E    E      S S    S    S  S  S  S  S
|----------------3-----3------3---|-------------------------3----------------------------|
|-------------3----3-----3------3-|------------------0--------3---------------------3----|
|--------------------0-----0------|-------------0------------------0-------------0-------|
|---------0---5-------------------|-------0-----------------------------0-----0----------|
|-------2----------------0----1---|--2-------------------------------------2-------------|
|--3------------------------------|------------------------------------------------------|
|  Q.         Q.         E    E
|
|                                    |---3---|  |---3----|  |----3----|
|  Q.        +H               E      E  E    E  E  E     E  E    E    E    S  S  S  S
|----------------------------15---|-17-15---14-15-14----12-14---12--------12-------------|
|-15b17-----(15)------------------|----------------------------------15------15-12-------|
|---------------------------------|------------------------------------------------12----|
|---------------------------------|------------------------------------------------------|
|---------------------------------|------------------------------------------------------|
|---------------------------------|------------------------------------------------------|


 Guitar Solo
  Am                        C               G                         Em
  Q       E     S   S S S   E   E     E     Q       E     S   S S S   E   E   E
|-------------------0-x-0---0---0-----0---|-------------------3-x-0---0-------0---|
|-1-------1-----1---1-x-1---1---1-----1---|---------3-----3---3-x-0---0---0---0---|
|-2-------2-----2---2-x-0---0---0-----0---|-0-------0-----0---0-x-0---0---0---0---|
|-2-------2-----2---2-x-2---2---2-----2---|-0-------0-----0---0-x-0---2---2---2---|
|-0-------0-----0---0-x-0---3---3-----3---|-2-------2-----2---2-x-----2---2---2---|
|-----------------------------------------|-3-------3-----3---3-x-----0---0---0---|
|
| E   E   S S   S   S E     E   S S   E     E   E   S S   S   S E     E   S S S S
|---------0---------------------0---------|---------3---------------------------0-|
|-----------1-------1-------------1-------|-----------3-----------------------0---|
|---------------2---------------------0---|---------------0-----------------2-----|
|-----2---------------------2-------------|-------------------0-----------2-------|
|-0-------------------3-------------------|-----2---------------------2-----------|
|-----------------------------------------|-3-------------------0-----------------|
|
| Gtr IV
| |--3--| |---3---|   |---3---| |---3---|   |--3--| |---3---|   |---3---|
| E E   E E   E   E   E   E   E E   E   E   E E   E E   E   E   E   E   E S S S S
|-8-7---5-7---5-------5-------------------|---------------------------------------|
|-----------------8-------8---5-8---5-----|-5-------------------------------------|
|---------------------------------------7-|---7---5-7---5-------5---------5-------|
|-----------------------------------------|-----------------7-------7---5---7-5-6-|
|-----------------------------------------|---------------------------------------|
|-----------------------------------------|---------------------------------------|


  Am              C           G                 Em
  Q   E   S S S S E E   E     Q   E   S S S   S  E  E       E
|-----------0-x-0-0-0---0---|-----------3-x---0--0-----------------|
|-1---1---1-1-x-1-1-1---1---|-----3---3-3-x---0--0--0-------0------|
|-2---2---2-2-x-0-0-0---0---|-0---0---0-0-x---0--0--0-------0------|
|-2---2---2-2-x-2-2-2---2---|-0---0---0-0-x---0--2--2-------2------|
|-0---0---0-0-x-0-3-3---3---|-2---2---2-2-x------2--2-------2------|
|---------------------------|-3---3---3-3-x------0--0-------0------|
|
| E E S S S S E   E S S E     E E S S S S E      E  S    S  S S
|-----0-------------0-------|-----3---------------------------0----|
|-------1---1---------1-----|-------3-----------------------0------|
|---------2-------------0---|---------0------------------2---------|
|---2-------------2---------|-----------0-----------2--------------|
|-0-----------3-------------|---2----------------2-----------------|
|---------------------------|-3-----------0------------------------|
|
| ~~~~~~            ~         ~
| Q   E   S S E   E E   S S   H           E     +E  S   +S  E
|---------------------------|--------------------------------------|
|---------------------------|--------------------------------------|
|-----5-------------5-------|--------------------------------------|
|-7-------7-5-7---7-----7-5-|--------------------------------------|
|---------------------------|-5-----------5b7r==(5)-5b7r(5)-3------|
|---------------------------|--------------------------------------|


  Am           C               G             Em
  H            H               H             H
|----------------------------|-----------------------------|
|-1------------1-------------|-----------------------------|
|-2------------0-------------|-0-------------0-------------|
|-2------------2-------------|-0-------------2-------------|
|-0------------3-------------|-2-------------2-------------|
|----------------------------|-3-------------0-------------|
|
| E  E S S S S E   E   S S E   E E   S S S S E E   S S S S
|------0---------------0-----|-------3-------------------0-|
|--------1---1-----------1---|---------3---------------0---|
|----------2---------------0-|-----------0-----------2-----|
|----2-------------2---------|-------------0-------2-------|
|-0------------3-------------|---2-------------2-----------|
|----------------------------|-3-------------0-------------|
|
| ~~
| Q.       S S S S S S Q       E S S S S S S E S S S S S S
|----------------------------|-----------------------------|
|----------------------------|-----------------------------|
|----------------------------|-----------------------------|
|----------------------5-----|-------------5-------------5-|
|----------------3-5s7-------|-------3-5s7---------3-5s7---|
|-5--------3-4-5-------------|---3-5-----------3-5---------|


  Am            C                 G               Em
  q     q       q       q         q       q       q       e   S S
|-------------------------------|------------------------------------|
|-1-----1-------1-------1-------|------------------------------------|
|-2-----2-------0-------0-------|-0-------0-------0-------0---0-0----|
|-2-----2-------2-------2-------|-0-------0-------2-------2---2-2----|
|-0-----0-------3-------3-------|-2-------2-------2-------2---2-2----|
|-------------------------------|-3-------3-------0-------0---0-0----|
|
| E E   S S S S E   E   S S E     E   E   S S S S E   E   S S S S
|-------0---------------0-------|---------3---------------------0----|
|---------1---1-----------1-----|-----------3-----------------0------|
|-----------2---------------0---|-------------0-------------2--------|
|---2---------------2-----------|---------------0---------2----------|
|-0-------------3---------------|-----2---------------2--------------|
|-------------------------------|-3---------------0------------------|
|
| E S S S S S S S S S S S S S S   S S S S S S S S S S S S S S S S
|-------------------------------|------------------------------------|
|-------------------------------|-8-5---8-5---8-5---8-5---8-5-8-5----|
|-------------------5---5-7-5-7-|-----7-----7-----7-----7------------|
|-------5---5-7-5-7---7---------|------------------------------------|
|---5-7---7---------------------|------------------------------------|
|-------------------------------|------------------------------------|


  Am                    C             G                     Em
  Q      E      S S S S E   E   E     Q      E      S S S S E    E   E
|-----------------0-x-0-0---0---0---|-----------------3-x-0-0--------0---|
|-1------1------1-1-x-1-1---1---1---|--------3------3-3-x-0-0----0---0---|
|-2------2------2-2-x-0-0---0---0---|-0------0------0-0-x-0-0----0---0---|
|-2------2------2-2-x-2-2---2---2---|-0------0------0-0-x-0-2----2---2---|
|-0------0------0-0-x-0-3---3---3---|-2------2------2-2-x---2----2---2---|
|-----------------------------------|-3------3------3-3-x---0----0---0---|
|
| E    E S    S S S E   E   S S E     E    E S    S S S E   E    S S S S
|--------0------------------0-------|--------3-------------------------0-|
|-------------1---1-----------1-----|-------------3------------------0---|
|---------------2---------------0---|---------------0--------------2-----|
|------2----------------2-----------|-----------------0----------2-------|
|-0-----------------3---------------|------2----------------2------------|
|-----------------------------------|-3-----------------0----------------|
|
| Q      E      S S S S S S S S S S   Q      E      S S S S S  S S S S S
|-5------5--------------------------|-5------5----------8-x-x-10-x-x-7-x-|
|-8b10---8b10---8-5---5-8-5---5-8-5-|-8b10---8b10---8-5------------------|
|-------------------7-------7-------|------------------------------------|
|-----------------------------------|------------------------------------|
|-----------------------------------|------------------------------------|
|-----------------------------------|------------------------------------|


  Am                    C             G                  Em
  Q      E      S S S S E   E   E     Q      E   S S S S E     E     E
|-----------------0-x-0-0---0---0---|--------------3-x-0-0--------------------|
|-1------1------1-1-x-1-1---1---1---|--------3---3-3-x-0-0-----0-----0--------|
|-2------2------2-2-x-0-0---0---0---|-0------0---0-0-x-0-0-----0-----0--------|
|-2------2------2-2-x-2-2---2---2---|-0------0---0-0-x-0-2-----2-----2--------|
|-0------0------0-0-x-0-3---3---3---|-2------2---2-2-x---2-----2-----2--------|
|-----------------------------------|-3------3---3-3-x---0-----0-----0--------|
|
| E    E S    S S S E   E   S S E     E  E   S S S S E   E     S  S  S  S
|--------0------------------0-------|--------3--------------------------0-----|
|-------------1---1-----------1-----|----------3---------------------0--------|
|---------------2---------------0---|------------0----------------2-----------|
|------2----------------2-----------|--------------0-----------2--------------|
|-0-----------------3---------------|----2---------------2--------------------|
|-----------------------------------|-3--------------0------------------------|
|
| Q      E      S S S S S S S S S S   E.   S S S Q       S  S  S  S  S  S
|-5------5--------------------------|------x-x--------------------------------|
|-8b10---8b10---8-5---5-8-5---5-8-5-|------x-x--------------------------------|
|-------------------7-------7-------|-5----x-x---4-------4-----5-----7--------|
|-----------------------------------|----------------------(7)---(7)---(7)----|
|-----------------------------------|-----------------------------------------|
|-----------------------------------|-----------------------------------------|


  Am                        C              G                         Em
  Q     E           S S S S E    E   E     Q     E           S S S S E    E   E
|---------------------0-x-0-0----0---0---|---------------------3-x-0-0--------0---|
|-1-----1-----------1-1-x-1-1----1---1---|-------3-----------3-3-x-0-0----0---0---|
|-2-----2-----------2-2-x-0-0----0---0---|-0-----0-----------0-0-x-0-0----0---0---|
|-2-----2-----------2-2-x-2-2----2---2---|-0-----0-----------0-0-x-0-2----2---2---|
|-0-----0-----------0-0-x-0-3----3---3---|-2-----2-----------2-2-x---2----2---2---|
|----------------------------------------|-3-----3-----------3-3-x---0----0---0---|
|
| E   E S       S   S S E   E    S S E     E   E S       S   S S E   E    S S S S
|-------0------------------------0-------|-------3------------------------------0-|
|---------------1-----1------------1-----|---------------3--------------------0---|
|-------------------2----------------0---|-------------------0--------------2-----|
|-----2---------------------2------------|---------------------0----------2-------|
|-0---------------------3----------------|-----2---------------------2------------|
|----------------------------------------|-3---------------------0----------------|
|
|       |----3----|                              |----3----|
| Q     S   +S    S E   E   S E.     S S   Q     S   +S    S E   S S S  S S S S S
|----------------------------------------|-----------------------8-x-x-10-x-x-7-x-|
|-5-----5---(5)--------------------------|-5-----5---(5)--------------------------|
|-7b9---7b9r(7)---5-----5---5------------|-7b9---7b9r(7)---5----------------------|
|-------------------7---------7------5-7-|-------------------7--------------------|
|----------------------------------------|----------------------------------------|
|----------------------------------------|----------------------------------------|


  Am                        C              G                         Em
  Q     E           S S S S E    E   E     Q     E           S S S S E    E   E
|---------------------0-x-0-0----0---0---|---------------------3-x-0-0---------------|
|-1-----1-----------1-1-x-1-1----1---1---|-------3-----------3-3-x-0-0----0---0------|
|-2-----2-----------2-2-x-0-0----0---0---|-0-----0-----------0-0-x-0-0----0---0------|
|-2-----2-----------2-2-x-2-2----2---2---|-0-----0-----------0-0-x-0-2----2---2------|
|-0-----0-----------0-0-x-0-3----3---3---|-2-----2-----------2-2-x---2----2---2------|
|----------------------------------------|-3-----3-----------3-3-x---0----0---0------|
|
| E   E S       S   S S E   E    S S E     E   E S       S   S S E   E    S S S S
|-------0------------------------0-------|-------3------------------------------0----|
|---------------1-----1------------1-----|---------------3--------------------0------|
|-------------------2----------------0---|-------------------0--------------2--------|
|-----2---------------------2------------|---------------------0----------2----------|
|-0---------------------3----------------|-----2---------------------2---------------|
|----------------------------------------|-3---------------------0-------------------|
|
|       |----3----|                              |----3----|
| Q     S   +S    S E   E   S E.     S S   Q     S   +S    S E   S S S  S S S S S
|----------------------------------------|-----------------------8-x-x-10-x-x-7-5----|
|-5-----5---(5)--------------------------|-5-----5---(5)-----------------------------|
|-7b9---7b9r(7)---5-----5---5------------|-7b9---7b9r(7)---5-------------------------|
|-------------------7---------7------5-7-|-------------------7-----------------------|
|----------------------------------------|-------------------------------------------|
|----------------------------------------|-------------------------------------------|


  Am                   C             G                   Em
  Q       E   S S S  S E   E   E     Q       E   S S S S E   E   E
|---------------0-x--0-0---0---0---|---------------3-x-0-0-------0---|
|-1-------1---1-1-x--1-1---1---1---|---------3---3-3-x-0-0---0---0---|
|-2-------2---2-2-x--0-0---0---0---|-0-------0---0-0-x-0-0---0---0---|
|-2-------2---2-2-x--2-2---2---2---|-0-------0---0-0-x-0-2---2---2---|
|-0-------0---0-0-x--0-3---3---3---|-2-------2---2-2-x---2---2---2---|
|----------------------------------|-3-------3---3-3-x---0---0---0---|
|
| E   E   S S S S E    E   S S E     E   E   S S S S E   E   S S S S
|---------0----------------0-------|---------3---------------------0-|
|-----------1---1------------1-----|-----------3-----------------0---|
|-------------2----------------0---|-------------0-------------2-----|
|-----2----------------2-----------|---------------0---------2-------|
|-0---------------3----------------|-----2---------------2-----------|
|----------------------------------|-3---------------0---------------|
|
| S S S S S S S S S  S S S S S S S   S S S S S S S S S S S S S S S S
|-8-5---7-5---8-5---10-5---8-5-7-5-|-8-5---7-5---8-5-------------7-5-|
|-----5-----5-----5------5---------|-----5-----5-----5-8-5-5-8-5-----|
|----------------------------------|---------------------------------|
|----------------------------------|---------------------------------|
|----------------------------------|---------------------------------|
|----------------------------------|---------------------------------|


  Am                   C             G                   Em
  Q       E   S S S  S E   E   E     Q       E   S S S S E   E   E
|---------------0-x--0-0---0---0---|---------------3-x-0-0--------------|
|-1-------1---1-1-x--1-1---1---1---|---------3---3-3-x-0-0---0---0------|
|-2-------2---2-2-x--0-0---0---0---|-0-------0---0-0-x-0-0---0---0------|
|-2-------2---2-2-x--2-2---2---2---|-0-------0---0-0-x-0-2---2---2------|
|-0-------0---0-0-x--0-3---3---3---|-2-------2---2-2-x---2---2---2------|
|----------------------------------|-3-------3---3-3-x---0---0---0------|
|
| E   E   S S S S E    E   S S E     E   E   S S S S E   E   S S S S
|---------0----------------0-------|---------3---------------------0----|
|-----------1---1------------1-----|-----------3-----------------0------|
|-------------2----------------0---|-------------0-------------2--------|
|-----2----------------2-----------|---------------0---------2----------|
|-0---------------3----------------|-----2---------------2--------------|
|----------------------------------|-3---------------0------------------|
|
| S S S S S S S S S  S S S S S S S   S S S S S S S S S S S S S S S S
|-8-5---7-5---8-5---10-5---8-5-7-5-|-8-5---7-5---8-5-------------7-5----|
|-----5-----5-----5------5---------|-----5-----5-----5-8-5-5-8-5--------|
|----------------------------------|------------------------------------|
|----------------------------------|------------------------------------|
|----------------------------------|------------------------------------|
|----------------------------------|------------------------------------|


  Am                            C
   Q           E     S  S  S  S  E     E     E
|-----------------------0--x--0--0-----0-----0----|
|--1-----------1-----1--1--x--1--1-----1-----1----|
|--2-----------2-----2--2--x--0--0-----0-----0----|
|--2-----------2-----2--2--x--2--2-----2-----2----|
|--0-----------0-----0--0--x--0--3-----3-----3----|
|-------------------------------------------------|
|
|  E     E     S  S  S  S  E     E     S  S  E
|--------------0-----------------------0----------|
|-----------------1-----1-----------------1-------|
|--------------------2-----------------------0----|
|--------2-----------------------2----------------|
|--0-----------------------3----------------------|
|-------------------------------------------------|
|
|  S  S  S  S  S  S  S  S  S  S  S  S  S  S  S  S
|-12--8----10--8----12--8----13--8----12--8-10--8-|
|-13-10-10-12-10-10-13-10-10-15-10-10-13-10-12-10-|
|--------9--------9--------9--------9-------------|
|-------------------------------------------------|
|-------------------------------------------------|
|-------------------------------------------------|


  G                             Em
   Q           E     S  S  S  S  E     E     E
|-----------------------3--x--0--0-----------0----|
|--------------3-----3--3--x--0--0-----0-----0----|
|--0-----------0-----0--0--x--0--0-----0-----0----|
|--0-----------0-----0--0--x--0--2-----2-----2----|
|--2-----------2-----2--2--x-----2-----2-----2----|
|--3-----------3-----3--3--x-----0-----0-----0----|
|
|  E     E     S  S  S  S  E     E     S  S  S  S
|--------------3--------------------------------0-|
|-----------------3--------------------------0----|
|--------------------0--------------------2-------|
|-----------------------0--------------2----------|
|--------2-----------------------2----------------|
|--3-----------------------0----------------------|
|
|  S  S  S  S  S  S  S  S  S  S  S  S  S  S  S  S
|-12--8----10--8----12--8----15-12-12-15-12-16-12-|
|-13-10-10-12-10-10-13-10-10----------------12-10-|
|--------9--------9--------9-12--9--9-12--9-------|
|-------------------------------------------------|
|-------------------------------------------------|
|-------------------------------------------------|


  Am                            C
   Q           E     S  S  S  S  E     E     E
|-----------------------0--x--0--0-----0-----0----|
|--1-----------1-----1--1--x--1--1-----1-----1----|
|--2-----------2-----2--2--x--0--0-----0-----0----|
|--2-----------2-----2--2--x--2--2-----2-----2----|
|--0-----------0-----0--0--x--0--3-----3-----3----|
|-------------------------------------------------|
|
|  E     E     S  S  S  S  E     E     S  S  E
|--------------0-----------------------0----------|
|-----------------1-----1-----------------1-------|
|--------------------2-----------------------0----|
|--------2-----------------------2----------------|
|--0-----------------------3----------------------|
|-------------------------------------------------|
|
|  S  S  S  S  S  S  S  S  S  S  S  S  S  S  S  S
|-17-12----15-12----17-12----19-12----17-12-15-12-|
|-13-10-13-12-10-13-13-10-13-15-10-13-13-10-12-10-|
|--------9--------9--------9--------9-------------|
|-------------------------------------------------|
|-------------------------------------------------|
|-------------------------------------------------|


  G                             Em
   Q           E     S  S  S  S  E     E     E
|-----------------------3--x--0--0-----------0----|
|--------------3-----3--3--x--0--0-----0-----0----|
|--0-----------0-----0--0--x--0--0-----0-----0----|
|--0-----------0-----0--0--x--0--2-----2-----2----|
|--2-----------2-----2--2--x-----2-----2-----2----|
|--3-----------3-----3--3--x-----0-----0-----0----|
|
|  E     E     S  S  S  S  E     E     S  S  S  S
|--------------3--------------------------------0-|
|-----------------3--------------------------0----|
|--------------------0--------------------2-------|
|-----------------------0--------------2----------|
|--------2-----------------------2----------------|
|--3-----------------------0----------------------|
|
|  S  S  S  S  S  S  S  S  S  S  S  S  S  S  S  S
|-17-12----15-12----17-12----15-12-12-15-12-15-12-|
|-13-10-13-12-10-13-13-10-13----------------12-10-|
|--------9--------9--------9-12--9--9-12--9-------|
|-------------------------------------------------|
|-------------------------------------------------|
|-------------------------------------------------|


   Outro
    Am                            C
     Q           E     S  S  S  S  E     E     E
||------------------------0--x--0--0-----0-----0----|
||o--1-----------1-----1--1--x--1--1-----1-----1----|
||---2-----------2-----2--2--x--0--0-----0-----0----|
||---2-----------2-----2--2--x--2--2-----2-----2----|
||o--0-----------0-----0--0--x--0--3-----3-----3----|
||--------------------------------------------------|
|
|    E     E     S  S  S  S  E     E     S  S  E
||---------------0-----------------------0----------|
||o-----------------1-----1-----------------1-------|
||---------------------2-----------------------0----|
||---------2-----------------------2----------------|
||o--0-----------------------3----------------------|
||--------------------------------------------------|
|
|    S  S  S  S  S  S  S  S  S  S  S  S  S  S  S  S
||--17-12----15-12----17-12----19-12----17-12-15-12-|
||o-13-10-13-12-10-13-13-10-13-15-10-13-13-10-12-10-|
||---------9--------9--------9--------9-------------|
||--------------------------------------------------|
||o-------------------------------------------------|
||--------------------------------------------------|


  G                             Em
   Q           E     S  S  S  S  E     E     E      4x
|-----------------------3--x--0--0-----------0------||
|--------------3-----3--3--x--0--0-----0-----0-----o||
|--0-----------0-----0--0--x--0--0-----0-----0------||
|--0-----------0-----0--0--x--0--2-----2-----2------||
|--2-----------2-----2--2--x-----2-----2-----2-----o||
|--3-----------3-----3--3--x-----0-----0-----0------||
|
|  E     E     S  S  S  S  E     E     S  S  S  S   4x
|--------------3--------------------------------0---||
|-----------------3--------------------------0-----o||
|--------------------0--------------------2---------||
|-----------------------0--------------2------------||
|--------2-----------------------2-----------------o||
|--3-----------------------0------------------------||
|
|  S  S  S  S  S  S  S  S  S  S  S  S  S  S  S  S   4x
|-17-12----15-12----17-12----15-12-12-15-12-15-12---||
|-13-10-13-12-10-13-13-10-13----------------12-10--o||
|--------9--------9--------9-12--9--9-12--9---------||
|---------------------------------------------------||
|--------------------------------------------------o||
|---------------------------------------------------||


Duration Legend
---------------
W - whole; H - half; Q - quarter; E - 8th; S - 16th; T - 32nd; X - 64th; a - acciaccatura
+ - note tied to previous; . - note dotted; .. - note double dotted
Uncapitalized letters represent notes that are staccato (1/2 duration)
Irregular groupings are notated above the duration line
Duration letters will always appear directly above the note/fret number it represents the
duration for.  Duration letters with no fret number below them represent rests.  Multi-
bar rests are notated in the form Wxn, where n is the number of bars to rest for.  Low
melody durations appear below the staff

Tablature Legend
----------------
 h   - hammer-on
 p   - pull-off
 b   - bend
 pb  - pre-bend
 r   - bend release (if no number after the r, then release immediately)
 /\  - slide into or out of (from/to "nowhere")
 s   - legato slide
 S   - shift slide
  - natural harmonic
[n]  - artificial harmonic
n(n) - tapped harmonic
 ~   - vibrato
 tr  - trill
 T   - tap
 TP  - trem. picking
 PM  - palm muting
\n/  - tremolo bar dip; n = amount to dip
 \n  - tremolo bar down
 n/  - tremolo bar up
/n\  - tremolo bar inverted dip
 =   - hold bend; also acts as connecting device for hammers/pulls
 <>  - volume swell (louder/softer)
 x   - on rhythm slash represents muted slash
 o   - on rhythm slash represents single note slash

Misc Legend
-----------
 |  - bar
||  - double bar
||o - repeat start
o|| - repeat end
*|  - double bar (ending)
 :  - bar (freetime)
 $  - Segno
 &  - Coda
Tempo markers -  = BPM(8/16=s8/s16), where s8 = swing 8ths, s16 = swing 16ths


***************************************************************************************
* Generated using Power Tab Editor by Brad Larsen - http://powertab.guitarnetwork.org *
***************************************************************************************

            
            
Suggest correction
Creating personal tab
Creating personal tab
You can edit any tab online and save it as your Personal.

You can edit, replace or remove any tab part or add personal notes – all changes will be seen only by you.

Personal tabs can be accessed anytime from any device, even offline.
Learn more »
Give kudos to tab author, rate the tab!
1 2 3 4 5
comments
print report bad tab
guest
Wanna post a correction for this tab? Suggest correction