Oops, an error
Loading. Please wait.

E Bow The Letter tab

version 1
version 1

Whole song

Interactive

by R.E.M.
14,902 views 12 this week
1 commentread comment
1 2 3 4 5
x 6
add to favorites
×
Save as Personal and add changes to this tab that will be seen only by you. Learn more ›
×
You can save this tab as Personal to edit and correct it or add notes. All changes will be seen only by you. Learn more »
launch autoscroll
font size
0
reset
how to read this tab
guitar tuner
edit
Autoscroll
slow
fast
+/-
esc
set tempo
stop
Author
Difficulty
E-Bow the Letter by microwaave!

VERSE chords
C :X32010
G :320033
Em:022000
Bm:224432

then
C :X32010
G :320033
Em:022000

then repeat


CHORUS chords
D :XX0232
Em:022000
G :320033
 repeat


First VERSE
     C
Look up, what do you see?
 G
All of you and all of me
    Em
Fluorescent and starry
 Bm
Some of them, they surprise

C                          G
   The bus ride, I went to write this, 4:00 a.m.
     Em
This    letter

                            C
Fields of poppies, little pearls
 G                               Em
All the boys and all the girls sweet-toothed
                Bm
Each and every one a little scary

C     G                    Em
          I said your name

                                 C
I wore it like a badge of teenage film stars
      G                     Em
Hash bars, cherry mash and tinfoil tiaras
  Bm
Dreaming of Maria Callas

C   G
   Whoever she is
      Em
This fame thing, I don't get it

    C                         G
I wrap my hand in plastic to try to look through it
 Em                    Bm
Maybelline eyes and girl-as-boy moves

C                G
 I can take you far
      Em
This star thing, I don't get it



CHORUS
               D     Em  G
               D     Em  G
I'll take you over, there
               D     Em  G
I'll take you over, there

  D             
Aluminum, tastes like fear
  Em            G
Adrenaline, it pulls us near


---
Continue this chord progression

------------------------------------

Picking Style:

Play with a pick or finger
While fretting the entire chord

VERSE

C :X32010
G :320033
Em:022000
Bm:224432

    C chord    G Chord   Em Chord   Bm Chord
e||-----0----------3---------0----------2-------||
b||-------1----------3---------0----------3-----||
G||---0----------0---------0----------4---------||
D||---------------------------------------------||
A||-3-------------------------------2-----------||
E||------------3---------0----------------------||

    C chord    G Chord   Em Chord   
e||-----0----------3---------0--------||
b||-------1----------3---------0------||
G||---0----------0---------0----------||
D||-----------------------------------||
A||-3---------------------------------||
E||------------3---------0------------||



CHORUS

D :XX0232
Em:022000
G :320033

    D chord  repeat       Em Chord    G Chord   
e||-----3--------3------------0----------3--------||
b||-------2--------2------------0----------3------||
G||---2--------2------------0----------0----------||
D||-0--------0------------------------------------||
A||-----------------------------------------------||
E||-----------------------0----------3------------||

            
            
Suggest correction
Creating personal tab
Creating personal tab
You can edit any tab online and save it as your Personal.

You can edit, replace or remove any tab part or add personal notes – all changes will be seen only by you.

Personal tabs can be accessed anytime from any device, even offline.
Learn more »
comments
print report bad tab
1 comment total.
0 reply
valnaut16 50 Oct 07, 2011 08:45 AM

I think intro goes like this

E----x------0
B----3------0
G----4------1
D----5------2
A----5------2
E--3-3-5--0-0

also there is anothe guitar goin

B--5-5-3-5-3

guest
You may want to rate the tab now too:
select rating
Wanna post a correction for this tab? Suggest correction