Oops, an error
Loading. Please wait.
We have an official Losing My Religion tab made by UG professional guitarists. Check out the tab »
×

Losing My Religion tab

version 1
version 1

Whole song

Video

by R.E.M.
534,295 views 840 this week
20 commentsread comments
1 2 3 4 5
x 79
add to favorites
×
Save as Personal and add changes to this tab that will be seen only by you. Learn more ›
×
You can save this tab as Personal to edit and correct it or add notes. All changes will be seen only by you. Learn more »
launch autoscroll
font size
0
reset
how to read this tab
guitar tuner
backing track
0:00
0:00
edit
Autoscroll
slow
fast
+/-
esc
set tempo
stop
Author
Unregistered
# For the latest collection of R.E.M. chords & tab, go to
# http://www.uark.edu/~cbray/rem/
#
# If you have any corrections or additions to this file, please email them
# to cbray@comp.uark.edu
#

LOSING MY RELIGION


F         xx3211         Em        022000
Fsus2     xx3011         Em(II)    x79987
G         320033         Ebm       x68876
Am        x02210         C         x32010
Am(II)    xxx210         Dm        xx0231


e|-10-12-10----|
B|----------10-|
G|-------------|
D|-------------|
A|-------------|
E|-------------|

  F       /   F   F Fsus2 /   F   /   F   /   F   G       G   G
e|-1-----------1---1---1-------1-|-----1-------1---3-------3---3-|
B|-1-----------1---1---1-------1-|-----1-------1---3-------3---3-|
G|-2-----------2---2---0-------2-|-----2-------2---0-------0---0-|
D|-3-----------3---3---3-------3-|-----3-------3---0-------0---0-|
A|-------------------------------|-----------------2-------2---2-|
E|-------------------------------|-----------------3-------3---3-|

  Am          AmII            AmII            AmII   AmII AmII
e|-0-----------0---------------0-|-------------0-------0---0-----|
B|-1-----------1---------------1-|-------------1-------1---1-----|
G|-2-----------2---------------2-|-------------2-------2---2-----|
D|-2-----------------------------|-------------------------------|
A|-0-----------------------------|-------------------------------|
E|-------------------------------|-------------------------------|

  F       /   F   F Fsus2     F   /   F       F   G       G   Am
e|-1-----------1---1---1-------1-|-----1-------1---3-------3---0-|
B|-1-----------1---1---1-------1-|-----1-------1---3-------3---1-|
G|-2-----------2---2---0-------2-|-----2-------2---0-------0---2-|
D|-3-----------3---3---3-------3-|-----3-------3---0-------0---2-|
A|-------------------------------|-----------------2-------2---0-|
E|-------------------------------|-----------------3-------3-----|

  Am      Am      Am  Am      G
e|-0-------0-------0---0-------3-|
B|-2-------2-------2---2-------3-|
G|-2-------2-------2---2-------0-|
D|-1-------1-------1---1-------0-|
A|-0-------0-------0---0-------2-|
E|-----------------------------3-|

        Am            Em
Oh life    is bigger,    it's bigger than you.
            Am                              Em
And you are not me, the lengths that I will go to.
                           Am
The distance in your eyes.
Em                  Em(II) Ebm Dm                      G
   Oh no, I've said     too    much, I've said enough.
                         Am                  Em
That's me in the corner,    That's me in the spot light,
                    Am           Em
Losing my religion.    Trying to keep up with you.
      Am
And I don't know if I can do it.
Em                  Em(II) Ebm Dm                           G
   Oh no, I've said     too    much, I haven't said enough.
                                     F Fsus2
I thought that I heard you laughing.
F                G         Am    Am(II)
I thought that I heard you sing.
  F          Fsus2  F   G   Am
I think I thought I saw you try.
G                Am
  Every whisper,
             Em                                 Am
Every waking hour, I'm choosing my confessions.
          Em
Trying to keep eye on you.
       Am
Like a hurt lost and blinded fool, fool.
Em                            Dm                G
   Oh no, I've said too much.    I said enough.
               Am               Em
Consider this,    consider this hint of the century.
               Am                Em
Consider this,    the slip, that brought me to my knees pale.
Am                               Em
What if all these fantasies come    flaming aground.
Em(II)   Dm       G
Now I've said too much.
                                     F Fsus2
I thought that I heard you laughing.
F                G         Am    Am(II)
I thought that I heard you sing.
  F          Fsus2  F   G   Am   G
I think I thought I saw you try.


[Interlude]

e|-----12--12--12--10--10--10--10--10--8--8--8--5--5--5--5--5-----------------|
B|----------------------------------------------------------------------------|
G|----------------------------------------------------------------------------|
D|----------------------------------------------------------------------------|
A|----------------------------------------------------------------------------|
E|----------------------------------------------------------------------------|

C                      Am
That was just a dream.
C                 /               C                 Am
  That was just a dream.   That's me in the corner.
                 Em                              Am
That's me in the spot light, losing my religion.
          Em                       Am
Trying to keep up with you.  And I don't know if I can do it.
Em                  Em(II) Ebm Dm
   Oh no, I've said     too    much.
                       G
I haven't said enough.
                                     F Fsus2
I thought that I heard you laughing.
F                G         Am    Am(II)
I thought that I heard you sing.
  F          Fsus2  F   G     Am(II)
I think I thought I saw   you try.
    F        Fsus2  F      G Am      Am(II)
But that was just a dream,      try, cry, why try.
F        Fsus2  F      G        Am            G      /
That was just a dream,   just a dream, just a dream, dream.


[Outro]

  Am
  v        v
e|-12-12-12-12-12-12-12-12-|-12-10-------10-------------|
B|-------------------------|-------13-10----13-10-13-10-|
G|-------------------------|----------------------------|
D|-------------------------|----------------------------|
A|-------------------------|----------------------------|
E|-------------------------|----------------------------|
(Play the first measure 7 times)


-----
Losing My Religion

(Mandolin arranged for Guitar)


From:  Grnliterm@aol.com

F         xx3211         Em        022000
Fsus2     xx3011         Em(II)    x79987
G         320033         Ebm       x68876
Am        x02210         C         x32010
Am(II)    xxx210         Dm        xx0231

The tab is for the mandolin part not the acousitic guitar 
part(but the chords are at the top of this page)  The chords 
above the tab refer to the acoustic guitar and not to the mandolin 
parts, the reason I put them is for a reference to when you play what.   
Also I am too lazy to write all the parts eveytime they appear because 
there's a lot of repeating.  Okay now that the explanation is done,

[Intro]

e|--10--12--10-------|
B|---------------10--|
G|-------------------|
D|-------------------|
A|-------------------|
E|-------------------|


[Part one]

  F                         Fsus2    F                          G                   Am                Am(II)
e|-------------------------|-------12--10--12--10------|---------------------|
B|--10---10--10--8-----10--|--10-------------------10--|--10---10--10--10-10-|
G|--10---10--10--10----10--|--10-----------------------|---9----9---9---7--9-|
D|--10---10--10--10----10--|--10-----------------------|--10---10--10--10-10-|
A|-------------------------|---------------------------|---------------------|
E|-------------------------|---------------------------|---------------------|

                                                       F                        Fsus2    F
e|------12--10--12--10-----|---------------------------|
B|--10------------------10-|--10---10--10---8------10--|
G|---9---------------------|--10---10--10---10-----10--|
D|--10---------------------|--10---10--10---10-----10--|
A|-------------------------|---------------------------|
E|-------------------------|---------------------------|

                     G                    Am                                        G
e|------12--10--12--10-------|-----------------------|      End of Part one
B|--10-------------------10--|--10--10--10--10----8--|
G|--10-----------------------|---9---9---9---9----7--|
D|--10-----------------------|--10--10--10--10----9--|
A|---------------------------|-----------------------|
e|---------------------------|-----------------------|


[Part two]
      
     Am                                                                                            Em
e|--12--12---10---12-----12--|-----12--12--12--12--12--12--12---|
B|--10--10---10---10-----10--|-----10--10--10--10--10--10--10---|
G|---9---9----9----9------9--|------9---9---9---9---9---9---9---|
D|--10---10--10---10-----10--|-----10--10--10--10--10--10--10---|
A|---------------------------|----------------------------------|
e|---------------------------|----------------------------------|


e|--12----12----12--12----12--|--12--12--12--12--12--12--12--|
B|--12----12----10--12----12--|--12--12--12--10--12--12--12--|
G|--12----12----12--12----12--|--12--12--12--12--12--12--12--|
D|----------------------------|------------------------------|
A|----------------------------|------------------------------|
e|----------------------------|------------------------------|

Am
e|--12---12----10--12----12--|--12--12--12--10--12--12--12--|
B|--10---10----10--10----10--|--10--10--10--10--10--10--10--|
G|---9----9-----9---9-----9--|---9---9---9---9---9---9---9--|
D|--10----10---10--10----10--|--10--10--10--10--10--10--10--|
A|---------------------------|------------------------------|
e|---------------------------|------------------------------|

Em
e|--12---12---12---12---12----12----|--12--12--12--12--12--12--12--|
B|--12---12---10---12---12----12----|--12--12--12--10--12--12--12--|
G|--12---12---12---12---12----12----|--12--12--12--12--12--12--12--|
D|----------------------------------|------------------------------|
A|----------------------------------|------------------------------|
e|----------------------------------|------------------------------|

Am                                                                                            Em
e|--12---12--10--12---12---|--12--12--12--10--12--12--12--|
B|--10---10--10--10---10---|--10--10--10--10--10--10--10--|
G|---9----9---9---9----9---|---9---9---9---9---9---9---9--|
D|--10---10--10--10---10---|--10--10--10--10--10--10--10--|
A|-------------------------|------------------------------|
e|-------------------------|------------------------------|

                                                                       Em(II)     Ebm
e|--12--12--12--12--12--|--12--12--12--12--12--12--12--|
B|--12--12--10--12--12--|--12--12--12--10--12--12--12--|
G|--12--12--12--12--12--|--12--12--12--12--12--12--12--|
D|----------------------|------------------------------|
A|----------------------|------------------------------|
e|----------------------|------------------------------|

Dm                                                       G
e|--13----13--13---13---13--|--13---13---13---13--|--15--15--15--15--15--|
B|--15----15--15---15---15--|--15---15---15---15--|--15--15--15--15--15--|
G|--14----14--14---14---14--|--14---14---14---14--|--16--16--16--16--16--|
D|--12----12--12---12---12--|--12---12---12---12--|--17--17--17--17--17--|
A|--------------------------|---------------------|----------------------|
e|--------------------------|---------------------|----------------------|

[Part 2 ending]
 

[Verses]

Fill 1   Am             Em
 Oh life    is bigger,    it's bigger than you.
            Am                              Em
And you are not me, the lengths that I will go to.
                           Am
The distance in your eyes.
Em                  Em(II) Ebm Dm                      G
   Oh no, I've said     too    much, I've said enough.
                         Am                  Em
That's me in the corner,    That's me in the spot light,
                    Am           Em
Losing my religion.    Trying to keep up with you.
      Am
And I don't know if I can do it.
Em                  Em(II) Ebm Dm                           G
   Oh no, I've said     too    much, I haven't said enough.
   Fill2                                        F    Fsus2
I thought that I heard you laughing.
F                G         Am    Am(II)
I thought that I heard you sing.
  F          Fsus2  F   G   Am
I think I thought I saw you try.
G  (fill3)     Am
  Every whisper,
             Em                                 Am
Every waking hour, I'm choosing my confessions.
          Em
Trying to keep eye on you.
       Am
Like a hurt lost and blinded fool, fool.
Em                            Dm                G
   Oh no, I've said too much.    I said enough.
               Am               Em
Consider this,    consider this hint of the century.
               Am                Em
Consider this,    the slip, that brought me to my knees failed
Am                               Em
What if all these fantasies come    flailing around
               Dm             G
Now I've said too much.
   fill2                                  F Fsus2
I thought that I heard you laughing.
F                G         Am    Am(II)
I thought that I heard you sing.
  F          Fsus2  F   G   Am   G
I think I thought I saw you try.


[Interlude]

e|-----12--12--12--10--10--10--10--10--8--8--8--5--5--5--5--5-----------------|
B|----------------------------------------------------------------------------|
G|----------------------------------------------------------------------------|
D|----------------------------------------------------------------------------|
A|----------------------------------------------------------------------------|
e|----------------------------------------------------------------------------|

C                      Am
That was just a dream.
C                 /               C                 Am
  That was just a dream.   That's me in the corner.
                 Em                              Am
That's me in the spot light, losing my religion.
          Em                       Am
Trying to keep up with you.  And I don't know if I can do it.
Em                  Em(II) Ebm Dm
   Oh no, I've said     too    much.
                       G
I haven't said enough.
   fill2                                  F Fsus2
I thought that I heard you laughing.
F                G         Am    Am(II)
I thought that I heard you sing.
  F          Fsus2  F   G     Am(II)   Fill3
I think I thought I saw   you try.
    F        Fsus2  F      G Am      Am(II)
But that was just a dream,      try, cry, why try.
F        Fsus2  F      G        Am            G      /          Fill3
That was just a dream,   just a dream, just a dream, dream.


[Outro]

  Am 
e|-12-12-12-12-12-12-12-12-|-12-10-------10----------------|
B|-------------------------|----------13-10----13-10-13-10-|
G|-------------------------|-------------------------------|
D|-------------------------|-------------------------------|
A|-------------------------|-------------------------------|
E|-------------------------|-------------------------------|
(Play the first measure 7 times guitar stops after 1st measure)


[Fill 1]

e|-------------------------|
B|------------10--8--------|
G|------7--9---------9--7--|
D|--10---------------------|
A|-------------------------|
e|-------------------------|


[Fill 2]

e|--15--15--15--10--12--12-----|
B|--15--15--15--------------10-|
G|--16--16--16-----------------|
D|--17--17--17-----------------|
A|-----------------------------|
e|-----------------------------|


[Fill 3]

e|----------------------------|
B|--8------------10--8--------|
G|--7------7--9---------9--7--|
D|--9--10---------------------|
A|----------------------------|
e|----------------------------|

*Remember:
Every verse is part two of the tab
The chorus is part one

            
            
Suggest correction
Creating personal tab
Creating personal tab
You can edit any tab online and save it as your Personal.

You can edit, replace or remove any tab part or add personal notes – all changes will be seen only by you.

Personal tabs can be accessed anytime from any device, even offline.
Learn more »
comments
print report bad tab
20 comments total. Showing first comments.
+2 reply
absolution_gabe 10 Jul 06, 2004 08:00 PM

this is simply the best tab i have seen so far excellent job man keep tabbin'

+2 reply
terlingtabber89 10 Apr 12, 2006 03:24 AM

great tab man! one of the best ive seen!

+1 reply
vanhalenrule 88 Jul 04, 2006 12:15 PM

brilliant, great tab

guest
Wanna post a correction for this tab? Suggest correction