Oops, an error
Loading. Please wait.

Out Of Time album tab

by R.E.M.
1,662 views 9 this week
no commentswrite comment
1 2 3 4 5
1 last vote to show rating
add to favorites
×
Save as Personal and add changes to this tab that will be seen only by you. Learn more ›
×
You can save this tab as Personal to edit and correct it or add notes. All changes will be seen only by you. Learn more »
launch autoscroll
font size
0
reset
how to read this tab
guitar tuner
edit
Autoscroll
slow
fast
+/-
esc
set tempo
stop
-----------------------------------------------------------------------
                RADIO SONG - REM
-----------------------------------------------------------------------
Tabbed by: Barnaby Wilde
Email:

Intro/ Chorus
e|-----11------11------11------11-----|
B|---13--13--13--13--14--14--14--14---|
G|-13------13------13------13---------|
D|------------------------------------|
A|------------------------------------|
E|------------------------------------|

Verse (Funky Guitar)
e|-------------------------------|
B|-------------------------------|
G|-------------------------------|
D|----3-1-3-1---------3-1-3-1-3--|
A|-----3-----3-1h------3---3-----|
E|-1-1-----------4-1-1-----------|

Verse (Electric)
e|-(+0)---1---|
B|-(+0)---1---|
G|-(+0)---3---|
D|-(+0)---4---|
A|-(+0)---4---|
E|-(+0)---1---|

In Verse Bridge (capo 1)
e|-0---3---|
B|-0---0---|
G|-2---2---|
D|-2---2---|
A|---------|
E|---------|

Bridge to Verse
e|---------|
B|---------|
G|-7---8---|
D|-8---8---|
A|-8---6---|
E|-6---6---|

Outro (Capo 1)
e|-0--|
B|-3--|
G|-4--|
D|----|
A|----|
E|----|

-----------------------------------------------------------------------
                LOSING MY RELIGION - REM
-----------------------------------------------------------------------
Tabbed by: Barnaby Wilde
Email:

Intro/ Chorus
Mandolin
E|--0------------0-----------------------|
A|-5-5-0--------5-5-0--------------------|
D|-------333030-------2-2-2-0-2-0-----0--|
G|-------555555-------5-5-5-5-5-5-x2--5--|

Guitar
e|-------1------------0--------------3-|
B|-------1------------1--------------3-|
G|-------2------------2--------------0-|
D|-------3------------2--------------0-|
A|-------3------------0--------------2-|
E|-------1------------0----x2--------3-|

Verse (x3)
E|--------------0---0-0-0-0-0---0-0-0-0----|
A|--------------0---0-0-0-0-2---0-2-0-0----|
D|--0-2-7-5-2-0-2---0-2-0-0-2---0-2-0-0----|
G|-5------------5---5-5-5-0-0---0-0-0-0----|

Guitar (x3)
e|------------0-----------0-----|
B|------------1-----------0-----|
G|------------2-----------0-----|
D|------------2-----------2-----|
A|------------0-----------2-----|
E|------------0-----------0-----|

E|-1---3--|
A|-0---2--|
D|-0---0--|
G|-2---0--|

e|-5---3--|
B|-6---3--|
G|-7---4--|
D|-7---5--|
A|-5---5--|
E|-5---3--|

Middle Bridge
E|-0000000000000000-----0000-000--------------|
A|-7775555533300000 x3--7775-530--------------|
D|-------------------------------0-2-7-5-2-0--|
G|------------------------------5-------------|

End
E|-0000000000000000000000000000000000000000000000000000000000000000-|
A|-7777777777777777777777777777777777777777777777777777777753053030-|
D|------------------------------------------------------------------|
G|------------------------------------------------------------------|


-----------------------------------------------------------------------
                LOW - REM
-----------------------------------------------------------------------
Tabbed by: Barnaby Wilde
Email:

Verse (Muted)
e|-------------|
B|-------------|
G|-------------|
D|-------------|
A|-7---5---9---|
E|-5---3---7---|

Chorus
e|--0---0---0---|
B|--0---0---0---|
G|--9---4---0---|
D|-10---5---2---|
A|-10---5---2---|
E|--8---3---0---|

Last Verse
e|-0---0---0---|
B|-0---0---0---|
G|-6---4---8---|
D|-7---5---9---|
A|-7---5---9---|
E|-5---3---7---|


End
e|----------|
B|----------|
G|----8-8---|
D|---9-9----|
A|--9-------|
E|-7--------|

-----------------------------------------------------------------------
                NEAR WILD HEAVEN - REM
-----------------------------------------------------------------------
Tabbed by: Barnaby Wilde
Email:

Intro/Chorus
e|----0--0---0--0---0--0--0--0---|
B|--7--7---5--5---8--8--8--8-----|
G|---7--7---6--6---7--7--7--7----|
D|-0------7------5---------------|
A|-------------------------------|
E|-------------------------------|

e|----0--0-------------0--0--0--0---|
B|--7--7---5--8-7-0--8--8--8--8-----|
G|---7--7---6---------7--7--7--7----|
D|-0------7---------5---------------|
A|----------------------------------|
E|----------------------------------|

Verse
e|-5---5<3---3>5---5<3------------------|
B|-5---5<3---3>5---5<3------------------|
G|-6---6<4---4>6---6<4------------------|
D|-7---7<5---5>7---7<5-----------------|
A|-7---7<5---5>7---7<5-----------------|
E|-5---5<3---3>5---5<3-----------------|

e|-0---0---0---0--0--------0--0-|
B|---0---0----------------------|
G|----2---2--4--4--------4--4---|
D|--4-------5-5--5--(x6)--5--5--|
A|-----------------------------|
E|-----------------------------|

Break
e|----------------------0-0--0--0--|
B|---------------------------------|
G|-----------------------4-4--4----|
D|--7--7--7-5--5--5-(x4)----5--5---|
A|---7--7----5--5------------------|
E|-5--5--5-3--3--3-----------------|

-----------------------------------------------------------------------
                ENDGAME - REM
-----------------------------------------------------------------------
Tabbed by: Barnaby Wilde
Email:

Verse
e|----------------------------|
B|----------------------------|
G|------0------0----7--7-6----|
D|-------2------4----6----7---|
A|-0-2-3--3-3>5--5>7--7-------|
E|----------------------------|

e|------------------------------|
B|------------------------------|
G|------0------0----7--7-676----|
D|-------2------4----6------7---|
A|-0-2-3--3-3>5--5>7--7---------|
E|------------------------------|

Pre-Chorus Lead in
e|-----|
B|-----|
G|-6---|
D|--7--|
A|-----|
E|-----|

Chorus
e|-0----5-3-2-2-2--0--0----|
B|-3-3--------3--0-2-3-0---|
G|-2--2-2-2-2-4----2-------|
D|------------4----2-------|
A|-------------------------|
E|-------------------------|

e|-0----5-3-2-2--2--0----|
B|-3-3--------3-3-23-----|
G|-2--2-2-2-2-4----------|
D|------------4----------|
A|-----------------------|
E|-----------------------|

e|-0----5-3-2-0--0--------0---|
B|-3-3--------0---0--------0--|
G|-2--2-2-2-2-1-1--1---1-1----|
D|------------2-----2-0-0-----|
A|------------2---------------|
E|------------0---------------|

Bridge (From end of chorus)
e|----0--0---3------0------2--------0--0-|
B|--2--2---3--3-3-0--0-0-3--3-----2--2---|
G|---3--3-0-0--0-1-1--1-2-2--2-2>3-3--3--|
D|-4-------------------------------------|
A|---------------------------------------|
E|---------------------------------------|

e|----3-------0----0---|
B|--3--3-3---0-0-0-0---|
G|-0-0--0-1-1---1--1---|
D|---------2-------2---|
A|-----------------2---|
E|-----------------0---|

End on
e|-----|
B|-3---|
G|-2---|
D|-0---|
A|-----|
E|-----|

-----------------------------------------------------------------------
                SHINY HAPPY PEOPLE - REM
-----------------------------------------------------------------------
Tabbed by: Barnaby Wilde
Email:

Intro

e|-3---0---2---0------|
B|-3---0---3---1------|
G|-0---0---4---0------|
D|-0---2---4---2------|
A|-2---2---2---3------|
E|-3---0---2---0------|

e|-3---0---2---3------|
B|-3---0---3---5------|
G|-0---0---4---5------|
D|-0---2---4----------|
A|-2---2---2----------|
E|-3---0---2----------|

Chorus:

e|-2p-0-2-0--------0-2-0--|
B|---------0-0-0-2h-0-----|

e|-2p-0-2-0--------0-----|
B|---------0-0-0-2h------|

Verse:

e|-2---0-2---0-0---0----------------|
B|-2---0-2---0-2---0----------------|
G|-2---1-2---1-2---1----------------|
D|-4---2-4---2-2---2----------------|
A|-4---2-4---2-0---2----------------|
E|-2---0-0---0-0---0----------------|

Bridge to Chorus:

e|-3---3---0---0-----------------------|
B|-3---3---0---0-----------------------|
G|-0---0---1---1-----------------------|
D|-0---0---2---0-----------------------|
A|-2---2---2---2-----------------------|
E|-3---3---0---0-----------------------|

-----------------------------------------------------------------------
                BELONG - REM
-----------------------------------------------------------------------
Tabbed by: Barnaby Wilde
Email:

Verse Riff
e|----------------------------|
B|----------------------------|
G|------0----0----0-----------|
D|--0-4h-0-4h-0-4h-4----------|
A|-5--------------------------|
E|----------------------------|

Verse Chords
e|-3---3---3---3--------------|
B|-0---1---3---0--------------|
G|-0---0---0---0--------------|
D|-0---0---0---0--------------|
A|-x---x---2---2--------------|
E|-3---3---0---3--------------|

Chorus
e|-3---3---3---3--------------|
B|-3---3---3---3--------------|
G|-0---0---0---0--------------|
D|-0---2---0---0--------------|
A|-2---3---2---2--------------|
E|-3---0---3---3--------------|

-----------------------------------------------------------------------
                HALF A WORLD AWAY - REM
-----------------------------------------------------------------------
Tabbed by: Barnaby Wilde
Email:

Verse
e|-0---0-0--0---3---3-3--3---2---2-2--2---0--|
B|-1---1-1--1---3---3-3--3---3---3-3--3---0--|
G|-2---2-2--2---0---0-0--0---2---0-2h-0---0--|
D|-2---0-2h-0---0---0-0--0---0---0-0--0---2--|
A|-0---0-0--0---2---0-2h-0----------------2--|
E|-0---0-0--0---3---3-3--3----------------0--|

Chorus
e|-1---1-1--1---2---|
B|-1---1-1--1---3---|
G|-2---2-2--2---2---|
D|-3---0-3h-0---0---|
A|-0---0------------|
E|-0---0------------|

End (Am-D-G)

Mandolin
E|-0---3---2---3-2-0---0--|
A|-0---2---0---0-0-0---2--|
D|-2---0---0---0-0-0---2--|
G|-5---0---2---2-2-2---0--|

E|-0---2---3---2---3-2-0--|
A|-0---0---0---0---0-0-0--|
D|-3---0---0---0---0-0-0--|
G|-5---2---2---2---2-2-2--|

-----------------------------------------------------------------------
                TEXARKANA - REM
-----------------------------------------------------------------------
Tabbed by: Barnaby Wilde
Email:

Bass Intro/ Fill
e|------------|
B|------------|
G|------------|
D|------------|
A|----0-2-----|
E|-0-3---00---|

Verse
e|-0-0-0-3-3------2--2--2-----|
B|-0--0--3--3-0--3-3--3--3----|
G|-0-----0----------4--4--4---|
D|-2-----0------4-------------|
A|-2--------------------------|
E|-0--------------------------|

e|-0-0-0-0-0-----3--3--3--0--|
B|-0--0--2--2-0-3-3--3--3----|
G|-0-----2-----0---0--0--0---|
D|-2-----2-------------------|
A|-2-----0-------------------|
E|-0-----0-------------------|

Slide Guitar 1
e|----------------------------|
B|-3>5<3>7-3>5<2>3------------|
G|----------------------------|

Slide Guitar 2
e|----------------------------|
B|------------10<8------------|
G|----------------------------|

Chorus
e|-0--0---2--2----2--2--2--2---0---0--|
B|-1---3--3---3-0-3---3--3--3--1---1--|
G|-0-0--0-2-2-----4-4--4--4--4-0---2--|
D|-2------0-------4------------2---2--|
A|-3--------------2------------3---0--|
E|-0--------------2------------0---0--|

Bridge to Verse/ End
e|-0---2---0-2-0--|
B|-0---3---3-3-0--|
G|-0---2---2-2----|
D|-2---0---0-0----|
A|-2--------------|
E|-0--------------|

Middle Bridge
e|----0--0--0--0---3--3--3------2---3---2---0-|
B|--0--0--0--0---3--3--3--3-----3---3---3---0-|
G|-2-2--2--2--2-0-3--0--0--0-x2-2---0---2---1-|
D|------------------------------0---0---0---2-|
A|----------------------------------2-------2-|
E|----------------------------------3-------0-|

Slide Guitar Part 2
e|-------------------------|
B|-7-7<5>7>8---5<4>5-5<3---|
G|-------------------------|

End on D.

-----------------------------------------------------------------------
                COUNTRY FEEDBACK - REM
-----------------------------------------------------------------------
Tabbed by: Barnaby Wilde
Email:

Strum
e|-0---3---2---0---3---2---0---|
B|-0---3---3---1---3---3---0---|
G|-0---0---2---0---0---2---0---|
D|-2---0---0---2---0---0---2---|
A|-2---2-------3---2-------3---|
E|-0---3-------0---3-------0---|

Slide Intro
e|->12<3>5<<<3-7-10<7-----------------|
B|------------------------7<5-8<7<5---|
G|-------------------6>9<7------------|
D|------------------------------------|
A|------------------------------------|
E|------------------------------------|

Lead
e|-15-----------0-15-15-14----|
B|---15-13-15-13-0--------0-5-|
G|----------------------------|
D|----------------------------|
A|----------------------------|
E|----------------------------|

"These clothes don’t ..."
e|----------------------2-------2----|
B|-3-5-3-5h-3-5-3-5-3-5--5-0-3-5-5-0-|
G|---------------------4-------------|
D|-----------------------------------|
A|-----------------------------------|
E|-----------------------------------|

"You come to me ... "
e|-----3-5-3-2-0-----------------|
B|-------------------------0-7-5-|
G|--------------4-5h-7>9<7-4-----|
D|-------------------------------|
A|-------------------------------|
E|-2b-0--------------------------|

"You come to me with excuses ..."
e|----15-15-15-10-8-10-8-10-8-10h>12-10-12-0-|
B|-0-5---------------------------------------|
G|-------------------------------------------|
D|-------------------------------------------|
A|-------------------------------------------|
E|-------------------------------------------|

"We've been through ..."
e|----------------------2--12--15-15-14---------------------------12---|
B|-0----3-5h-3-3-5-3-5-3-5---12--------13-13-15h-15>17-15-15-13-12-12<-|
G|---------------------------------------------------------------------|
D|---------------------------------------------------------------------|
A|---------------------------------------------------------------------|
E|--2b-0---------------------------------------------------------------|

"A paperweight ..."
e|---------------------------3-5>7-5-5-7h-3-3-5-7-7-10<8-0--|
B|-----7b-5----3-0-3-5h-0-0-5--------------------5--------0-|
G|----------------------------------------------------------|
D|----------------------------------------------------------|
A|----------------------------------------------------------|
E|-2b-0----2b-0---------------------------------------------|

"It's crazy ..."
e|-------------------------------------------------14--12-|
B|-----7b-5----------0-5-7>12-10-12>15-13-13-15h-15--15---|
G|------------7-9h-7<-------------------------------------|
D|--------------------------------------------------------|
A|--------------------------------------------------------|
E|-2b-0----2>3--------------------------------------------|

e|---------------2-----2------|
B|-----3-3-5h-3-5-0-3-3-5<3-0-|
G|----------------------------|
D|----------------------------|
A|----------------------------|
E|-2b-0-----------------------|

e|-----12-0-----------2-0--|
B|---------7b-5----------0-|
G|-------------------------|
D|-------------------------|
A|-------------------------|
E|-2b-0--------3/2/3/2-----|

e|-----15-14--14---0-------0-|
B|----------13--13<-3-5-3-0--|
G|---------------------------|
D|---------------------------|
A|---------------------------|
E|-2b-0----------------------|

e|-----0-3-5-7b-0-------0-12-15-15-0------------------|
B|-------------0--7-5-0-0-----------0-15-15-17-15-0-5-|
G|----------------------------------------------------|
D|----------------------------------------------------|
A|----------------------------------------------------|
E|-2b-0----------2------------------------------------|

e|---------7-5-2-0---|
B|-----7b-5----------|
G|-------------------|
D|-------------------|
A|-------------------|
E|-2b-0-----------2--|

-----------------------------------------------------------------------
                ME IN HONEY - REM
-----------------------------------------------------------------------
Tabbed by: Barnaby Wilde
Email:

Tune down ½ Step
Intro: Db w/ Sustain
Verse:
eb|----------------------------|
Bb|-3---3-3--3-3-3-3-3-3--3-3--|
Gb|-2---0-2h-2-2-0-0-0-2h-2-2--|
Db|-0---0-0--0-0-0-0-0-0--0-0--|
Ab|----------------------------|
Eb|----------------------------|

Chorus:
eb|----------------------------|
Bb|----------------------------|
Gb|-2-2--2-2-2-2-2-2--2-2------|
Db|-0-2h-2-2-0-0-0-2h-2-2------|
Ab|-0-0--0-0-0-0-0-0--0-0------|
Eb|----------------------------|

Mandolin:
Db-Ab
Eb|------------------------|
Ab|-4-4--4-4---------------|
Db|-------------0-2h-2-2---|
Gb|-0-2h-2-2----4-4--4-4---|

            
            
Suggest correction
Creating personal tab
Creating personal tab
You can edit any tab online and save it as your Personal.

You can edit, replace or remove any tab part or add personal notes – all changes will be seen only by you.

Personal tabs can be accessed anytime from any device, even offline.
Learn more »
Give kudos to tab author, rate the tab!
1 2 3 4 5
comments
print report bad tab
guest
You may want to rate the tab now too:
select rating
Wanna post a correction for this tab? Suggest correction