Oops, an error
Loading. Please wait.

Turn You Inside-Out bass

version 1
version 1

Whole song

by R.E.M.
859 views 1 this week
1 commentread comment
1 2 3 4 5
3 more votes to show rating
add to favorites
×
Save as Personal and add changes to this tab that will be seen only by you. Learn more ›
×
You can save this tab as Personal to edit and correct it or add notes. All changes will be seen only by you. Learn more »
launch autoscroll
font size
0
reset
guitar tuner
edit
Autoscroll
slow
fast
+/-
esc
set tempo
stop
#----------------------------------PLEASE NOTE---------------------------------#
#This file is the author's own work and represents their interpretation of the #
#song. You may only use this file for private study, scholarship, or research. #
#------------------------------------------------------------------------------#
#

                Turn You Inside-Out

Bass Tab by Dave Silverstone (dsgumby@future.dreamscape.com)

This isn't perfect, at least in the verse, so corrections would be most
welcome.

Main riff:
G-|-----------------------------
D-|-----------------------------
A-|----------5p4-5-7-7--5-5-4---(repeat a lot)
E-|-7-7-5-7-------------------5-

Chorus: ("I believe in what you do, I beleive we've been watching you", or
whatever that stuff is) Play the first three notes first time only.
G-|-------------------------------------
D-|-------------------------------------
A-|-------2/4-4---2/4-4---2/4-4---2/4-4-
E-|-0-0-0-------0-------0-------0-------

That bit where they sing the chorus up a pitch, right before the break:
(I don't know how else to describe it.):
G-|-------------------
D-|-------------------
A-|---5-4-2---5-4-2---
E-|-2-------2-------2-  Play this alot, then end on B, drop to A, then
start             .                       the verse riff again.




            
            
Suggest correction
Creating personal tab
Creating personal tab
You can edit any tab online and save it as your Personal.

You can edit, replace or remove any tab part or add personal notes – all changes will be seen only by you.

Personal tabs can be accessed anytime from any device, even offline.
Learn more »
Give kudos to tab author, rate the tab!
1 2 3 4 5
comments
print report bad tab
1 comment total.
+1 reply
xwaspx 41 Jun 08, 2011 07:09 PM

Main riff:
G-|-4-4-4----2---------2-----------
D-|------2h4---4p2-0-2--(2)2-0-----
A-|----------------------------4-2-
E-|--------------------------------

G-|-4-4-4----2----------2--2-2----2-
D-|------2h4----4p2-0-2---2----0h2--
A-|---------------------------------(repeat)
E-|---------------------------------

I figured this whole song out note for note - be on the look out for the GuitarPro tab soon

guest
Wanna post a correction for this tab? Suggest correction