Oops, an error
Loading. Please wait.

Gone So Long Acoustic tab

139 views 9 this week
no commentswrite comment
1 2 3 4 5
3 more votes to show rating
add to favorites
×
Save as Personal and add changes to this tab that will be seen only by you. Learn more ›
×
You can save this tab as Personal to edit and correct it or add notes. All changes will be seen only by you. Learn more »
launch autoscroll
font size
0
reset
how to read this tab
guitar tuner
edit
Autoscroll
slow
fast
+/-
esc
set tempo
stop
                                  R.L. Burnside - Gone So Long 

https://www.youtube.com/watch?v=otsB2blt6YU 
https://www.youtube.com/watch?v=ZpdhGifeQEU

Strumming up with index finger: ↓
Strumming down with thumb: ↑

/!\ capo.1 recommended

[Intro]
  ↑  ↑   ↑  ↓    ↑ ↑   ↑  ↓  ↑  ↑ ↑   ↑  ↓
                 <         (x3)           > 
e|---0--(0)-0------0--(0)-0-------0--(0)-0----|
B|---0--(0)-0------0--(0)-0--x----0--(0)-0----|
G|---0--(0)-0------0--(0)-0--x----0--(0)-0----|
D|---0h2-2-(2)-----0h2-2-(2)-x----0h2-2-(2)---|
A|-2-------------2-----------x--2-------------|
E|--------------------------------------------|

[Verse]
      oooh          Tell me babe               
    ↑  ↑   ↑  ↓  ↑   ↑ ↑   ↑  ↓  ↑         
e|-----0--(0)-0--------0--(0)-0-----|
B|-----0--(0)-0--x-----0--(0)-0--x--|
G|-----0--(0)-0--x-----0--(0)-0--x--|
D|-----0h2-2-(2)-x-----0h2-2-(2)-x--|
A|---2-----------x---2-----------x--|
E|----------------------------------|
  ↑  ↑   ↑  ↓    ↑ ↑   ↑  ↓  ↑  ↑ ↑   ↑  ↓
e|---0--(0)-0------0--(0)-0-------0--(0)-0--|
B|---0--(0)-0------0--(0)-0--x----0--(0)-0--|
G|---0--(0)-0------0--(0)-0--x----0--(0)-0--|
D|---0h2-2-(2)-----0h2-2-(2)-x----0h2-2-(2)-|
A|-2-------------2-----------x--2-----------|
E|------------------------------------------|

      What don't     matter year                             
e|-----0--(0)-0--------0--(0)-0-----|
B|-----0--(0)-0--x-----0--(0)-0--x--|
G|-----0--(0)-0--x-----0--(0)-0--x--|
D|-----0h2-2-(2)-x-----0h2-2-(2)-x--|
A|---2-----------x---2-----------x--|
E|----------------------------------|

[Pre-Hook]
(x2)
e|---0--(0)-------------------|
B|---0--(0)-3b----------------|
G|---0--(0)----0--------------|
D|---0h2-2-----0-2----2----2--|
A|-2----------------2---------|
E|----------------------3b----|

e|---0--(0)--------------------|
B|---0--(0)-2/4----------------|
G|---0--(0)-----0--------------|
D|---0h2-2------0-2----2----2--|
A|-2-----------------2---------|
E|-----------------------3b----|

[Hook]
   Gone so long
e|---0--(0)-0----|
B|---0--(0)-0--x-|
G|---0--(0)-0--x-|
D|---0h2-2-(2)-x-|
A|-2-----------x-|
E|---------------|

------------------------

oooh I ain't tell my babe
oooh But I'm coming home

Gone so long

oooh I wish that year
oooh My baby yell in my own

Gone so long

************************************

| (n) Ghost note
| h   Hammer-on
| b   Bend
| /   Slide up

************************************

            
            
Suggest correction
Creating personal tab
Creating personal tab
You can edit any tab online and save it as your Personal.

You can edit, replace or remove any tab part or add personal notes – all changes will be seen only by you.

Personal tabs can be accessed anytime from any device, even offline.
Learn more »
Give kudos to tab author, rate the tab!
1 2 3 4 5
comments
print report bad tab
guest
You may want to rate the tab now too:
select rating
Wanna post a correction for this tab? Suggest correction