Oops, an error
Loading. Please wait.

Dont Wait For Me chords

337 views 1 this week
no commentswrite comment
1 2 3 4 5
2 more votes to show rating
add to favorites
×
Save as Personal and add changes to this tab that will be seen only by you. Learn more ›
×
You can save this tab as Personal to edit and correct it or add notes. All changes will be seen only by you. Learn more »
launch autoscroll
font size
0
reset
transpose
0
reset
display chords
guitar tuner
edit
Autoscroll
slow
fast
+/-
esc
set tempo
stop
Author
Difficulty
Strumming
There is no strumming pattern for this song yet. and get +5 IQ
[Intro]

e|-------------------------|-------------------------|
B|--------------------9--6-|--------------------9--6-|
G|------6--8-------6-------|------6--8-------6-------|
D|-6/8--------6/8----------|-6/8--------6/8----------|
A|-------------------------|-------------------------|
E|-------------------------|-------------------------|

e|-------------------------|-------------------------|
B|--------------------9--6-|---------13h14-----------|
G|------6--8-------6-------|-------------------------|
D|-6/8--------6/8----------|-6/8---------------------|
A|-------------------------|-------------------------|
E|-------------------------|-------------------------|


[Verse 1]

Bbm        C#       F#
I want to hold you up
Bbm        C# 
I want to hold 
F#
Hold you until you’re strong enough

Bbm        C#       F#
I’ve been a home to her
Bbm        C#       G#
I’ve been a home to her


[Chorus]

F#               C#            G#
You’re holding, don’t fight it
                         G#   
They will eat you up, so break it off just give it time
F#               C#            G#
Don’t wait for me, it’s alright

Don’t wait for me


[Verse 2]

Bbm        C#       F#
I want to wake you up
Bbm        C#     
I want to wake you
F#
Wake you but it’s not enough
Bbm        C#       F#
The night is here and I know
Bbm        C#       G#
You’ll disappear, I know


[Chorus]

F#               C#            G#
You’re holding, don’t fight it
                         G#
They will eat you up, so break it off just give it time
F#               C#            G#
Don’t wait for me, it’s alright

Don’t wait for me


[Solo]

Background Guitar: F# - Bbm - G#

e|---------------------------------------------------------------------|
B|-------------11-9-------------------11-9-----------------------------|
G|-10-10-10-10------10-8--10-10-10-10-------10-8--8-10-8---------------|
D|---------------------------------------------------------------------|
A|---------------------------------------------------------------------|
E|---------------------------------------------------------------------|

Background Guitar: F# - C# - G#

e|---------------------------------------------4/9--9/11--11/13--13/16-|
B|-11-11-11-11-11-11-9-9-9-9-9-9-6-6-6-4-6-4-6-------------------------|
G|---------------------------------------------------------------------|
D|---------------------------------------------------------------------|
A|---------------------------------------------------------------------|
E|---------------------------------------------------------------------|


[Outro]

F#   Bbm   G#

C#                                 F#  Bbm  G#
And the sun is going to wake you up
G#                          F#  Bbm  G#
Through the song, I’m coming
C#                                  F#  C#  G#
And the sound is going to pick you up
G#
Through the silence, I’m coming



************************************
| h  Hammer-on
| /  Slide up
************************************

            
            
Suggest correction
Creating personal tab
Creating personal tab
You can edit any tab online and save it as your Personal.

You can edit, replace or remove any tab part or add personal notes – all changes will be seen only by you.

Personal tabs can be accessed anytime from any device, even offline.
Learn more »
Give kudos to tab author, rate the tab!
1 2 3 4 5
comments
print report bad tab
guest
You may want to rate the tab now too:
select rating
Wanna post a correction for this tab? Suggest correction