Oops, an error
Loading. Please wait.

Oceaan chords

version 3
version 3

Whole song

Interactive

by Racoon
92,724 views 363 this week
6 commentsread comments
1 2 3 4 5
x 55
add to favorites
×
Save as Personal and add changes to this tab that will be seen only by you. Learn more ›
×
You can save this tab as Personal to edit and correct it or add notes. All changes will be seen only by you. Learn more »
launch autoscroll
font size
0
reset
transpose
0
reset
display chords
guitar tuner
edit
Autoscroll
slow
fast
+/-
esc
set tempo
stop
Strumming
There is no strumming pattern for this song yet. and get +5 IQ
Originally with capo on 2.


[Intro, Verses, & Outro]

    G             Em             G             Em
E|---------------------------------------------------------------|
B|---------------------------------------------------------------|
G|-------- 0------0/2--0-----------------------------------------|
D|-------0---0-------------------------0-------0/2--0------------|
A|-----2-------------------2/0-----2-----2--------------2/0------|
E|--3----------------------------3----------3-----------------3--|


[Verse 1]

(continue playing the above):

G           Em            G        Em
   Er is verrekte veel te zeggen
G           Em           G        Em
   en te liegen nog veel meer
G            Em              G    
   Heel veel bagger bloot te leggen
            Em              G
al doet het graven nog zo’n zeer
           Em            G
Ik ben een eikel maar ik leer


[Chorus]

C       Am  Em   D          C
    Een oceaan     om in te vluchten
Am       Em    D           C
nooit jaloers    te hoeven zijn
Am     Em  D            C
Liefde om    je hart te luchten
Am     Em       D              G (play intro part again, into the next verse)
Een oceaan, hoe lekker zou het zijn


[Verse]

Was er iets waar ik om wenste
voordat de put droog kwam te staan
Dan was het lang zullen we leven
familie waar ik veel van hou
en voor wie ik sterven zou


[Bridge]

[at the end of "sterven zou" you play the following, in the F chord of the bridge]:

    G              Em                  F ... 
E|-----------------------------------|
B|-----------------------------------|
G|-----------------------------------|
D|--------0--------0/2---------0-----|
A|-----2-----2------------2----------|
E|--3-----------3--------------------|

F       G             F
  Een oceaan om in te schuilen
         G               F
nooit alleen meer hoeven zijn
          G                  Em
Ik heb gesmeekt niet meer te huilen
      F
alsjeblieft

          G                     F
Het leven jaagt geen angst meer aan
          G             F
ik heb al zo ver moeten kruipen
            G                Em
Het laatste stuk zal ook wel gaan
          F (continue straight into C after this chord)
tot ik ga staan

C       Am  Em   D          C
    Een oceaan     om in te vluchten
Am       Em    D           C
nooit jaloers    te hoeven zijn
Am     Em    D            C
Liefde om      je hart te luchten
   Am   Em       D            C (beginning of chorus repetition) 
Een oceaan,        alleen van mij
       Am  Em   D            C
    Een oceaan     om  te verzuipen
    Am     Em    D              C
Een dag of wat      een held te zijn
Am       Em     D          C
Laat die ander     nu maar kruipen
    Am Em      D             G (continue into the intro again) 
Een oceaan vol tranen is van mij


[Outro]

Alleen van mij
    G             Em             G             Em
E|---------------------------------------------------------------|
B|---------------------------------------------------------------|
G|-------- 0------0/2--0-----------------------2/0---------------|
D|-------0---0-------------------------0-----------2/0-----------|
A|-----2-------------------2/0-----2-----2--------------2/0------|
E|--3----------------------------3----------3-----------------3--|



************************************

| /  Slide up

************************************

            
            
Suggest correction
Creating personal tab
Creating personal tab
You can edit any tab online and save it as your Personal.

You can edit, replace or remove any tab part or add personal notes – all changes will be seen only by you.

Personal tabs can be accessed anytime from any device, even offline.
Learn more »
comments
print report bad tab
6 comments total. Showing first comments.
0 reply
Gerrieklopping 82 Dec 03, 2015 02:50 AM

knap hoor om en Hameron te doen 2h0 op die manier..

0 reply
GuitarJip 10 Dec 04, 2015 12:04 AM

Ja, hij bedoelt wss pull off

+1 reply
timdev1119 10 Dec 25, 2015 12:21 AM

E|---------------------------------------------------------------|
B|---------------------------------------------------------------|
G|-------- 0------0h2--0-----------------------------------------|
D|-------0---0-------------2h0--------0-------0h2--0------------|
A|-----2---------------------------2-----2--------------2h0------|
E|--3----------------------------3----------3-----------------3--|

Volgens mij is dit de intro :)

guest
You may want to rate the tab now too:
select rating
Wanna post a correction for this tab? Suggest correction