Oops, an error
Loading. Please wait.

The Ship In Port tab

version 1
version 1

Whole song

  • Didn't find any tab of this song so I did it by ear and for a request. Capo 6.
1,405 views 21 this week
2 commentsread comments
1 2 3 4 5
x 5
add to favorites
×
Save as Personal and add changes to this tab that will be seen only by you. Learn more ›
×
You can save this tab as Personal to edit and correct it or add notes. All changes will be seen only by you. Learn more »
launch autoscroll
font size
0
reset
how to read this tab
guitar tuner
edit
Autoscroll
slow
fast
+/-
esc
set tempo
stop
Some says your dreams are a distant road
e|-3-----3-----3----2------2------2----0-----0-----0-------------------------------------|
B|---0-----0----------3------3-----------1-----1---------3-----3-----3---3-----3-----3---|
G|-----0-----0---0------2------2-----2-----0-----0----0----4-----4---------4-----4-------|
D|-----------------------------------------------------------5-----5---5-----5-----5---5-|
A|---------------------------------------------------------------------------------------|
E|---------------------------------------------------------------------------------------|

Down which our hearts would like to go
e|-0-----0-----0-------------------2-----2-----2---3-----3-----2---------------|
B|---1-----1-------3-----3-----3-----3-----3---------3-----3-------------------|
G|-----0-----0---0---4-----4-----------2-----2---2-----2-----2---2-------------|
D|---------------------5-----5---5---------------------------------------------|
A|-----------------------------------------------------------------------------|
E|-----------------------------------------------------------------------------|

But I have always stayed in place
e|-3-----3-----3----2------2------2----0-----0-----0-------------------------------------|
B|---0-----0----------3------3-----------1-----1---------3-----3-----3---3---------------|
G|-----0-----0---0------2------2-----2-----0-----0----0----4-----4---------2h4---2h4---2-|
D|-----------------------------------------------------------5-----5---5-------5---------|
A|---------------------------------------------------------------------------------------|
E|---------------------------------------------------------------------------------------|

Under that old illusion that is safe
e|-0-----0-----0-------------------2-----2-----2---3-----3-----2---------------|
B|---1-----1-------3-----3-----3-----3-----3---------3-----3-------------------|
G|-----0-----0---0---4-----4-----------2-----2---2-----2-----2---2-------------|
D|---------------------5-----5---5---------------------------------------------|
A|-----------------------------------------------------------------------------|
E|-----------------------------------------------------------------------------|

You said the ship in port is the safer one
e|-3-----3-----3----2------2------2----0-----0-----0-------------------------------------|
B|---0-----0----------3------3-----------1-----1---------3-----3-----3---3-----3-----3---|
G|-----0-----0---0------2------2-----2-----0-----0----0----4-----4---------4-----4-------|
D|-----------------------------------------------------------5-----5---5-----5-----5---5-|
A|---------------------------------------------------------------------------------------|
E|---------------------------------------------------------------------------------------|

But it's not the reason it was made
e|-0-----0-----0-------------------2-----2-----2---3-----3-----2---------------|
B|---1-----1-------3-----3-----3-----3-----3---------3-----3-------------------|
G|-----0-----0---0---4-----4-----------2-----2---2-----2-----2---2-------------|
D|---------------------5-----5---5---------------------------------------------|
A|-----------------------------------------------------------------------------|
E|-----------------------------------------------------------------------------|

So forgive me if I wander off
e|-7-----7-----7---10----10----10--10----10----8-----7----7-----7---7----7----7-----|
B|---8-----8----------8-----8---------8----8-----------8----8---------8----8--------|
G|-----7-----7---7------7-----7---7-----7----7-----7-----7----7---7-----7----7--7---|
D|----------------------------------------------------------------------------------|
A|----------------------------------------------------------------------------------|
E|----------------------------------------------------------------------------------|

And forgive me more if I just stay
e|-10----10----10----10----8--7--5----5----5---5---5-----5------------------|
B|----8-----8-----8-----8----------3----3-------3----3----------------------|
G|------7-----7-----7-----7--7--7----2----2--2----2----2---2----------------|
D|--------------------------------------------------------------------------|
A|--------------------------------------------------------------------------|
E|--------------------------------------------------------------------------|


                               Sing another song for the lost ones
e|-7---7---7---7---7---7---7---7---7---7---7---7----10---10---10---10---10---10---10---10--|
B|---5---5---5---5---5---5---5---5---5---5---5---5-----8----8----8----8----8----8----8----8|
G|-----------------------------------------------------------------------------------------|
D|-----------------------------------------------------------------------------------------|
A|-----------------------------------------------------------------------------------------|
E|-----------------------------------------------------------------------------------------|

We're the ones who need it the most
e|-8---8---7---7---7---7---7---7---7---7---7---7---7---7---7---7---------------------|
B|---8---8---------------------------------------------------------------------------|
G|-----------7---7---7---7---7---7---7---7---7---7---7---7---7---7-------------------|
D|-----------------------------------------------------------------------------------|
A|-----------------------------------------------------------------------------------|
E|-----------------------------------------------------------------------------------|

Every time you run it'll cost ya'
e|-10---10---10---10---10---10---10---10----|
B|----8----8----8----8----8----8----8----8--|
G|------------------------------------------|
D|------------------------------------------|
A|------------------------------------------|
E|------------------------------------------|

But it doesn't stop us runnin'
e|-8---8---7---7-------------------------------------------------------------------|
B|---8---8-------------------------------------------------------------------------|
G|-----------7---7-----------------------------------------------------------------|
D|---------------------------------------------------------------------------------|
A|---------------------------------------------------------------------------------|
E|---------------------------------------------------------------------------------|

If a coward dies a thousand times
e|-3-----3-----3----2------2------2----0-----0-----0-------------------------------------|
B|---0-----0----------3------3-----------1-----1---------3-----3-----3---3-----3-----3---|
G|-----0-----0---0------2------2-----2-----0-----0----0----4-----4---------4-----4-------|
D|-----------------------------------------------------------5-----5---5-----5-----5---5-|
A|---------------------------------------------------------------------------------------|
E|---------------------------------------------------------------------------------------|

Then there's a graveyard in my head
e|-0-----0-----0-------------------2-----2-----2---3-----3-----2---------------|
B|---1-----1-------3-----3-----3-----3-----3---------3-----3-------------------|
G|-----0-----0---0---4-----4-----------2-----2---2-----2-----2---2-------------|
D|---------------------5-----5---5---------------------------------------------|
A|-----------------------------------------------------------------------------|
E|-----------------------------------------------------------------------------|

'Cause it took me years to say the words
e|-3-----3-----3----2------2------2----0-----0-----0-------------------------------------|
B|---0-----0----------3------3-----------1-----1---------3-----3-----3---3---------------|
G|-----0-----0---0------2------2-----2-----0-----0----0----4-----4---------2h4---2h4---2-|
D|-----------------------------------------------------------5-----5---5-------5---------|
A|---------------------------------------------------------------------------------------|
E|---------------------------------------------------------------------------------------|

That you denied even need said
e|-0-----0-----0-------------------2-----2-----2---3-----3-----2---------------|
B|---1-----1-------3-----3-----3-----3-----3---------3-----3-------------------|
G|-----0-----0---0---4-----4-----------2-----2---2-----2-----2---2-------------|
D|---------------------5-----5---5---------------------------------------------|
A|-----------------------------------------------------------------------------|
E|-----------------------------------------------------------------------------|

Sing another song for the lost ones
e|-7---7---7---7---7---7---7---7---7---7---7---7----10---10---10---10---10---10---10---10--|
B|---5---5---5---5---5---5---5---5---5---5---5---5-----8----8----8----8----8----8----8----8|
G|-----------------------------------------------------------------------------------------|
D|-----------------------------------------------------------------------------------------|
A|-----------------------------------------------------------------------------------------|
E|-----------------------------------------------------------------------------------------|

We're the ones who need it the most
e|-8---8---7---7---7---7---7---7---7---7---7---7---7---7---7---7---------------------|
B|---8---8---------------------------------------------------------------------------|
G|-----------7---7---7---7---7---7---7---7---7---7---7---7---7---7-------------------|
D|-----------------------------------------------------------------------------------|
A|-----------------------------------------------------------------------------------|
E|-----------------------------------------------------------------------------------|

Nothin' that you fear is forgotten
e|-10---10---10---10---10---10---10---10----|
B|----8----8----8----8----8----8----8----8--|
G|------------------------------------------|
D|------------------------------------------|
A|------------------------------------------|
E|------------------------------------------|

It follows you around like
e|-8---8---7---7-------------------------------------------------------------------|
B|---8---8-------------------------------------------------------------------------|
G|-----------7---7-----------------------------------------------------------------|
D|---------------------------------------------------------------------------------|
A|---------------------------------------------------------------------------------|
E|---------------------------------------------------------------------------------|

G D G C
Then everything danced to a stranger tune
G D G C
And we found our song and we found our truth
       G D G C
And now that we know it's that we always knew
G D G C
Farewell to the chains we were born into

G D
And as we danced among the ashes of our arms
G C
We laughed it off
G D
And then we burned our tiny world to find the ocean
G C
Just beyond those paper walls


************************************

| h   Hammer-on

************************************

            
            
Suggest correction
Creating personal tab
Creating personal tab
You can edit any tab online and save it as your Personal.

You can edit, replace or remove any tab part or add personal notes – all changes will be seen only by you.

Personal tabs can be accessed anytime from any device, even offline.
Learn more »
comments
print report bad tab
2 comments total.
0 reply
scrubbydubbybubby 10 Mar 23, 2016 02:25 AM

The only one I could find of this song, I like it, but at some points it doesn't seem right. great job though!

0 reply
beaded 84 Mar 28, 2016 11:18 AM

What parts seem off to you? That way I can go fix it

guest
You may want to rate the tab now too:
select rating
Wanna post a correction for this tab? Suggest correction