Oops, an error
Loading. Please wait.

Bodysnatchers tab

version 2
version 2

Whole song

Interactive

21,952 views 45 this week
3 commentsread comments
1 2 3 4 5
x 7
add to favorites
×
Save as Personal and add changes to this tab that will be seen only by you. Learn more ›
×
You can save this tab as Personal to edit and correct it or add notes. All changes will be seen only by you. Learn more »
launch autoscroll
font size
0
reset
how to read this tab
guitar tuner
backing track
0:00
0:00
edit
Autoscroll
slow
fast
+/-
esc
set tempo
stop
BODYSNATCHERS - RADIOHEAD

Tabbed by Richard Pugh, pughsli@gmail.com

Tab for playing alone. Some of the lyrics are mis-spelt intentionally to make them 
to read. Bear in mind it's
very hard to get the singing exactly in time like on the record, watch it live on 
to see Thom trying to sing it.
Listen to the song, or even better, just feel where to accent the strums naturally. Enjoy.

Intro

e|----------------------------------------------------------------|
b|----------------------------------------------------------------|
g|----------------------------------------------------------------|
D|------------------------------------------------10--12------12--|
A|----9-------10------12------12----------10--12------------------|
D|----0---0---0---0---0---0---0---10--12--0---0---0---0---0---0---| x2

e|----------------------------------------------------------------|
b|----------------------------------------------------------------|
g|----------------------------------------------------------------|
D|------------------------------------------------10--12------12--|
A|----9-------10------15------15----------10--12------------------|
D|0---0---0---0---0---0---0---0---10--12--0---0---0---0---0---0---|

e|----------------------------------------------------------------|
b|----------------------------------------------------------------|
g|----------------------------------------------------------------|
D|------------------------------------------------10--12------12--|
A|----9-------10------14------14----------10--12------------------|
D|0---0---0---0---0---0---0---0---10--12--0---0---0---0---0---0---|

Verse 1

      I       do      not
      Un   -  der  -  stand
e|----------------------------------------------------------------|
b|----------------------------------------------------------------|
g|----------------------------------------------------------------|
D|------------------------------------------------10--12------12--|
A|----9-------10------12------12----------10--12------------------|
D|0---0---0---0---0---0---0---0---10--12--0---0---0---0---0---0---| x2

          Wot it      is
e|----------------------------------------------------------------|
b|----------------------------------------------------------------|
g|----------------------------------------------------------------|
D|------------------------------------------------10--12------12--|
A|----9-------10------15------15----------10--12------------------|
D|0---0---0---0---0---0---0---0---10--12--0---0---0---0---0---0---|

      I've    done    wrong
e|----------------------------------------------------------------|
b|----------------------------------------------------------------|
g|----------------------------------------------------------------|
D|------------------------------------------------10--12------12--|
A|----9-------10------14------14----------10--12------------------|
D|0---0---0---0---0---0---0---0---10--12--0---0---0---0---0---0---|

      Uh, ful of      holes
          Check   for pulse
e|----------------------------------------------------------------|
b|----------------------------------------------------------------|
g|----------------------------------------------------------------|
D|------------------------------------------------10--12------12--|
A|----9-------10------12------12----------10--12------------------|
D|0---0---0---0---0---0---0---0---10--12--0---0---0---0---0---0---|

          Blink   yer eyes
e|----------------------------------------------------------------|
b|----------------------------------------------------------------|
g|----------------------------------------------------------------|
D|------------------------------------------------10--12------12--|
A|----9-------10------15------15----------10--12------------------|
D|0---0---0---0---0---0---0---0---10--12--0---0---0---0---0---0---|

          One     for yes
e|----------------------------------------------------------------|
b|----------------------------------------------------------------|
g|----------------------------------------------------------------|
D|------------------------------------------------10--12------12--|
A|----9-------10------14------14----------10--12------------------|
D|0---0---0---0---0---0---0---0---10--12--0---0---0---0---0---0---|

          Two     for no
e|----------------------------------------------------------------|
b|----------------------------------------------------------------|
g|------------------------------------------------12--11------11--|
D|----------------------------------------------------------------|
A|----9-------10------12------12----------10--12------------------|
D|0---0---0---0---0---0---0---0---10--12--0---0---0---0---0---0---|

e|----------------------------------------------------------------|
b|----------------------------------------------------------------|
g|----------------------------------------------------------------|
D|------------------------------------------------10--12------12--|
A|----9-------10------12------12----------10--12------------------|
D|0---0---0---0---0---0---0---0---10--12--0---0---0---0---0---0---|

Chorus 1

                                  I've            no
e|----------------------------------------------------------------|
b|----------------------------------------------------------------|
g|----------------------------------------------------------------|
D|------------------------------------------------10--12------12--|
A|----9-------10------15------15----------10--12------------------|
D|0---0---0---0---0---0---0---0---10--12--0---0---0---0---0---0---|

  i       -       dea             what            i
e|----------------------------------------------------------------|
b|----------------------------------------------------------------|
g|----------------------------------------------------------------|
D|------------------------------------------------10--12------12--|
A|----9-------10------14------14----------10--12------------------|
D|0---0---0---0---0---0---0---0---10--12--0---0---0---0---0---0---|

  am              ta        -       alkin a - bout
e|----------------------------------------------------------------|
b|----------------------------------------------------------------|
g|----------------------------------------------------------------|
D|------------------------------------------------10--12------12--|
A|----9-------10------12------12----------10--12------------------|
D|0---0---0---0---0---0---0---0---10--12--0---0---0---0---0---0---|

e|----------------------------------------------------------------|
b|----------------------------------------------------------------|
g|----------------------------------------------------------------|
D|------------------------------------------------10--12------12--|
A|----9-------10------12------12----------10--12------------------|
D|0---0---0---0---0---0---0---0---10--12--0---0---0---0---0---0---|


                                  I'm             trapped
e|----------------------------------------------------------------|
b|----------------------------------------------------------------|
g|----------------------------------------------------------------|
D|------------------------------------------------10--12------12--|
A|----9-------10------15------15----------10--12------------------|
D|0---0---0---0---0---0---0---0---10--12--0---0---0---0---0---0---|

  in      this        bo      -       dy      and     can't
e|----------------------------------------------------------------|
b|----------------------------------------------------------------|
g|----------------------------------------------------------------|
D|------------------------------------------------10--12------12--|
A|----9-------10------14------14----------10--12------------------|
D|0---0---0---0---0---0---0---0---10--12--0---0---0---0---0---0---|

                  get     out
e|----------------------------------------------------------------|
b|----------------------------------------------------------------|
g|----------------------------------------------------------------|
D|------------------------------------------------10--12------12--|
A|----9-------10------12------12----------10--12------------------|
D|0---0---0---0---0---0---0---0---10--12--0---0---0---0---0---0---|

e|----------------------------------------------------------------|
b|----------------------------------------------------------------|
g|----------------------------------------------------------------|
D|------------------------------------------------10--12------12--|
A|----9-------10------12------12----------10--12------------------|
D|0---0---0---0---0---0---0---0---10--12--0---0---0---0---0---0---|

Bridge

          Oh  Oh      Ohhhhhhhhhhhh...                Oh
                          Ohhhhhhhhhhh...
e|----------------------------------------------------------------|
b|----------------------------------------------------------------|
g|----9-------10------12------12----------------------------------|
D|----------------------------------------------------------------|
A|----7-------8-------10------10----------7---8---7---------------|
D|0---0---0---0---0---0---0---0---7---8---------------8-------8---| x2

e|----------------------------------------------------------------|
b|----------------------------------------------------------------|
g|----9-------10------7---7---7---7---7---7---7---7---7---7---7---|
D|----------------------------------------------------------------|
A|----7-------8-------5---5---5---5---5---5---5---5---5---5---5---|
D|0---0---0---0---0---0---0---0---0---0---0---0---0---0---0---0---|

          Oh  Oh      Ohhhhhhhhhhhh...                Oh
                          Ohhhhhhhhhhh...
e|----------------------------------------------------------------|
b|----------------------------------------------------------------|
g|----9-------10------12------12----------------------------------|
D|----------------------------------------------------------------|
A|----7-------8-------10------10----------7---8---7---------------|
D|0---0---0---0---0---0---0---0---7---8---------------8-------8---| x2

e|----------------------------------------------------------------|
b|----------------------------------------------------------------|
g|----9-------10------7---7---7---7---7---7---7---7---7---7---7---|
D|----------------------------------------------------------------|
A|----7-------8-------5---5---5---5---5---5---5---5---5---5---5---|
D|0---0---0---0---0---0---0---0---0---0---0---0---0---0---0---0---|

Verse 2
                  (the)
      You've  killed  sound
  Re- moved   back    bone
e|----------------------------------------------------------------|
b|----------------------------------------------------------------|
g|----------------------------------------------------------------|
D|------------------------------------------------10--12------12--|
A|----9-------10------12------12----------10--12------------------|
D|0---0---0---0---0---0---0---0---10--12--0---0---0---0---0---0---| x2

  Pale    le- vi  -   ta  -   tion
e|----------------------------------------------------------------|
b|----------------------------------------------------------------|
g|----------------------------------------------------------------|
D|------------------------------------------------10--12------12--|
A|----9-------10------15------15----------10--12------------------|
D|0---0---0---0---0---0---0---0---10--12--0---0---0---0---0---0---|

              wi' the edg  -  eeeeeesssss      -      suh
e|----------------------------------------------------------------|
b|----------------------------------------------------------------|
g|----------------------------------------------------------------|
D|------------------------------------------------10--12------12--|
A|----9-------10------14------14----------10--12------------------|
D|0---0---0---0---0---0---0---0---10--12--0---0---0---0---0---0---|

                  Sawn    ooooooooooooffffff
e|----------------------------------------------------------------|
b|----------------------------------------------------------------|
g|----------------------------------------------------------------|
D|------------------------------------------------10--12------12--|
A|----9-------10------12------12----------10--12------------------|
D|0---0---0---0---0---0---0---0---10--12--0---0---0---0---0---0---|

e|----------------------------------------------------------------|
b|----------------------------------------------------------------|
g|------------------------------------------------12--11------11--|
D|----------------------------------------------------------------|
A|----9-------10------12------12----------10--12------------------|
D|0---0---0---0---0---0---0---0---10--12--0---0---0---0---0---0---|

Chorus 2

                                  I've            no
e|----------------------------------------------------------------|
b|----------------------------------------------------------------|
g|----------------------------------------------------------------|
D|------------------------------------------------10--12------12--|
A|----9-------10------15------15----------10--12------------------|
D|0---0---0---0---0---0---0---0---10--12--0---0---0---0---0---0---|

  i       -       dea             what            you
e|----------------------------------------------------------------|
b|----------------------------------------------------------------|
g|----------------------------------------------------------------|
D|------------------------------------------------10--12------12--|
A|----9-------10------14------14----------10--12------------------|
D|0---0---0---0---0---0---0---0---10--12--0---0---0---0---0---0---|

  are             taaaaaaaaaaaaaaaaaalkin a - bout
e|----------------------------------------------------------------|
b|----------------------------------------------------------------|
g|----------------------------------------------------------------|
D|------------------------------------------------10--12------12--|
A|----9-------10------12------12----------10--12------------------|
D|0---0---0---0---0---0---0---0---10--12--0---0---0---0---0---0---|

e|----------------------------------------------------------------|
b|----------------------------------------------------------------|
g|----------------------------------------------------------------|
D|------------------------------------------------10--12------12--|
A|----9-------10------12------12----------10--12------------------|
D|0---0---0---0---0---0---0---0---10--12--0---0---0---0---0---0---|


                              Yer mouth           moves       on -
e|----------------------------------------------------------------|
b|----------------------------------------------------------------|
g|----------------------------------------------------------------|
D|------------------------------------------------10--12------12--|
A|----9-------10------15------15----------10--12------------------|
D|0---0---0---0---0---0---0---0---10--12--0---0---0---0---0---0---|

  -ly     with                    some    one's   hand
e|----------------------------------------------------------------|
b|----------------------------------------------------------------|
g|----------------------------------------------------------------|
D|------------------------------------------------10--12------12--|
A|----9-------10------14------14----------10--12------------------|
D|0---0---0---0---0---0---0---0---10--12--0---0---0---0---0---0---|

              up  yer ass
e|----------------------------------------------------------------|
b|----------------------------------------------------------------|
g|----------------------------------------------------------------|
D|------------------------------------------------10--12------12--|
A|----9-------10------12------12----------10--12------------------|
D|0---0---0---0---0---0---0---0---10--12--0---0---0---0---0---0---|

e|----------------------------------------------------------------|
b|----------------------------------------------------------------|
g|----------------------------------------------------------------|
D|------------------------------------------------10--12------12--|
A|----9-------10------12------12----------10--12------------------|
D|0---0---0---0---0---0---0---0---10--12--0---0---0---0---0---0---|

Bridge

          Oh  Oh      Ohhhhhhhhhhhh...                Oh
                          Ohhhhhhhhhhh...
e|----------------------------------------------------------------|
b|----------------------------------------------------------------|
g|----9-------10------12------12----------------------------------|
D|----------------------------------------------------------------|
A|----7-------8-------10------10----------7---8---7---------------|
D|0---0---0---0---0---0---0---0---7---8---------------8-------8---| x2

e|------------------------|
b|------------------------|
g|----9-------10----------|
D|------------------------|
A|----7-------8-----------|
D|0---0---0---0---0---0---|

Middle 8

e|----------------------------------------------------------------|
b|----------------------------------------------------------------|
g|3---3---3---3---3---3---3---3---3---3---3---3---3---3---3---3---|
D|5---5---5---5---5---5---5---5---5---5---5---5---5---5---5---5---|
A|5---5---5---5---5---5---5---5---5---5---5---5---5---5---5---5---|
D|5---5---5---5---5---5---5---5---5---5---5---5---5---5---5---5---|

e|5---5---5---5---5---5---5---5---5---5---5---5---5---5---5---5---|
b|6---6---6---6---6---6---6---6---6---6---6---6---6---6---6---6---|
g|7---7---7---7---7---7---7---7---7---7---7---7---7---7---7---7---|
D|7---7---7---7---7---7---7---7---7---7---7---7---7---7---7---7---|
A|5---5---5---5---5---5---5---5---5---5---5---5---5---5---5---5---|
D|0---0---0---0---0---0---0---0---0---0---0---0---0---0---0---0---|

e|----------------------------------------------------------------|
b|----------------------------------------------------------------|
g|2---2---2---2---2---2---2---2---2---2---2---2---2---2---2---2---|
D|3---3---3---3---3---3---3---3---3---3---3---3---3---3---3---3---|
A|3---3---3---3---3---3---3---3---3---3---3---3---3---3---3---3---|
D|3---3---3---3---3---3---3---3---3---3---3---3---3---3---3---3---|

                                                      Has the light
e|----------------------------------------------------------------|
b|----------------------------------------------------------------|
g|3---3---3---3---3---3---3---3---3---3---3---3---3---3---3---3---|
D|5---5---5---5---5---5---5---5---5---5---5---5---5---5---5---5---|
A|5---5---5---5---5---5---5---5---5---5---5---5---5---5---5---5---|
D|5---5---5---5---5---5---5---5---5---5---5---5---5---5---5---5---|

          gon out         for you?                    be- cos the
e|----------------------------------------------------------------|
b|----------------------------------------------------------------|
g|3---3---3---3---3---3---3---3---3---3---3---3---3---3---3---3---|
D|5---5---5---5---5---5---5---5---5---5---5---5---5---5---5---5---|
A|5---5---5---5---5---5---5---5---5---5---5---5---5---5---5---5---|
D|5---5---5---5---5---5---5---5---5---5---5---5---5---5---5---5---|

  lights  gon out         for me                      It  is  the
e|5---5---5---5---5---5---5---5---5---5---5---5---5---5---5---5---|
b|6---6---6---6---6---6---6---6---6---6---6---6---6---6---6---6---|
g|7---7---7---7---7---7---7---7---7---7---7---7---7---7---7---7---|
D|7---7---7---7---7---7---7---7---7---7---7---7---7---7---7---7---|
A|5---5---5---5---5---5---5---5---5---5---5---5---5---5---5---5---|
D|0---0---0---0---0---0---0---0---0---0---0---0---0---0---0---0---|

  Twenty- first   cen  -  tu- ry                      It  is  the
e|----------------------------------------------------------------|
b|----------------------------------------------------------------|
g|2---2---2---2---2---2---2---2---2---2---2---2---2---2---2---2---|
D|3---3---3---3---3---3---3---3---3---3---3---3---3---3---3---3---|
A|3---3---3---3---3---3---3---3---3---3---3---3---3---3---3---3---|
D|3---3---3---3---3---3---3---3---3---3---3---3---3---3---3---3---|

  Twenty- first   cen  -  tu- ry                      It  can
e|----------------------------------------------------------------|
b|----------------------------------------------------------------|
g|3---3---3---3---3---3---3---3---3---3---3---3---3---3---3---3---|
D|5---5---5---5---5---5---5---5---5---5---5---5---5---5---5---5---|
A|5---5---5---5---5---5---5---5---5---5---5---5---5---5---5---5---|
D|5---5---5---5---5---5---5---5---5---5---5---5---5---5---5---5---|

  Fol-low you like        a   dog                         It  brought
e|----------------------------------------------------------------|
b|----------------------------------------------------------------|
g|3---3---3---3---3---3---3---3---3---3---3---3---3---3---3---3---|
D|5---5---5---5---5---5---5---5---5---5---5---5---5---5---5---5---|
A|5---5---5---5---5---5---5---5---5---5---5---5---5---5---5---5---|
D|5---5---5---5---5---5---5---5---5---5---5---5---5---5---5---5---|

      me      to      my      knees                   Theygot a
e|5---5---5---5---5---5---5---5---5---5---5---5---5---5---5---5---|
b|6---6---6---6---6---6---6---6---6---6---6---6---6---6---6---6---|
g|7---7---7---7---7---7---7---7---7---7---7---7---7---7---7---7---|
D|7---7---7---7---7---7---7---7---7---7---7---7---7---7---7---7---|
A|5---5---5---5---5---5---5---5---5---5---5---5---5---5---5---5---|
D|0---0---0---0---0---0---0---0---0---0---0---0---0---0---0---0---|

  skin    and theyput me      in                      Theygot a
e|----------------------------------------------------------------|
b|----------------------------------------------------------------|
g|2---2---2---2---2---2---2---2---2---2---2---2---2---2---2---2---|
D|3---3---3---3---3---3---3---3---3---3---3---3---3---3---3---3---|
A|3---3---3---3---3---3---3---3---3---3---3---3---3---3---3---3---|
D|3---3---3---3---3---3---3---3---3---3---3---3---3---3---3---3---|

  skin    and theyput     me  i   -   i   -   in      All the lines
e|----------------------------------------------------------------|
b|----------------------------------------------------------------|
g|3---3---3---3---3---3---3---3---3---3---3---3---3---3---3---3---|
D|5---5---5---5---5---5---5---5---5---5---5---5---5---5---5---5---|
A|5---5---5---5---5---5---5---5---5---5---5---5---5---5---5---5---|
D|5---5---5---5---5---5---5---5---5---5---5---5---5---5---5---5---|

          Wrapped     my      face                    All the lines              *All 
line, wouldn't fit in.
              a - round
e|----------------------------------------------------------------|
b|----------------------------------------------------------------|
g|3---3---3---3---3---3---3---3---3---3---3---3---3---3---3---3---|
D|5---5---5---5---5---5---5---5---5---5---5---5---5---5---5---5---|
A|5---5---5---5---5---5---5---5---5---5---5---5---5---5---5---5---|
D|5---5---5---5---5---5---5---5---5---5---5---5---5---5---5---5---|

          wrapped     my      face                    And for
              a - round
e|5---5---5---5---5---5---5---5---5---5---5---5---5---5---5---5---|
b|6---6---6---6---6---6---6---6---6---6---6---6---6---6---6---6---|
g|7---7---7---7---7---7---7---7---7---7---7---7---7---7---7---7---|
D|7---7---7---7---7---7---7---7---7---7---7---7---7---7---7---7---|
A|5---5---5---5---5---5---5---5---5---5---5---5---5---5---5---5---|
D|0---0---0---0---0---0---0---0---0---0---0---0---0---0---0---0---|

  A - ny  one else        to  see                     And for
e|----------------------------------------------------------------|
b|----------------------------------------------------------------|
g|2---2---2---2---2---2---2---2---2---2---2---2---2---2---2---2---|
D|3---3---3---3---3---3---3---3---3---3---3---3---3---3---3---3---|
A|3---3---3---3---3---3---3---3---3---3---3---3---3---3---3---3---|
D|3---3---3---3---3---3---3---3---3---3---3---3---3---3---3---3---|

  A - ny  one else        to  see                     I'm a   lie
e|----------------------------------------------------------------|
b|----------------------------------------------------------------|
g|3---3---3---3---3---3---3---3---3---3---3---3---3---3---3---2---|
D|5---5---5---5---5---5---5---5---5---5---5---5---5---5---5---3---|
A|5---5---5---5---5---5---5---5---5---5---5---5---5---5---5---3---|
D|5---5---5---5---5---5---5---5---5---5---5---5---5---5---5---3---|

e|----------------------------------------------------------------|
b|----------------------------------------------------------------|
g|----2-------2-------2-------3-------3-------3-------3-------3---|
D|----3-------3-------3-------5-------5-------5-------5-------3---|
A|----3-------3-------3-------5-------5-------5-------5-------1---|
D|----3-------3-------3-------5-------5-------5-------5-------1---|

e|----------------------------------------------------------------|
b|----------------------------------------------------------------|
g|----3-------3-------3-------2-------2-------2-------2-------3---|
D|----3-------3-------3-------3-------3-------3-------3-------5---|
A|----1-------1-------1-------3-------3-------3-------3-------5---|
D|----1-------1-------1-------3-------3-------3-------3-------5---|

e|----------------------------------------------------------------|
b|----------------------------------------------------------------|
g|----3-------3-------3-------3-------3-------3-------3-------5---|
D|----5-------5-------5-------3-------3-------3-------3-------6---|
A|----5-------5-------5-------1-------1-------1-------1-------6---|
D|----5-------5-------5-------1-------1-------1-------1-------6---|

e|----------------------------------------------------------------|
b|----------------------------------------------------------------|
g|----5-------5-------5-------5---4---4---4---4---4---4---4---4---|
D|----6-------6-------6-------6---5---5---5---5---5---5---5---5---|
A|----6-------6-------6-------6---5---5---5---5---5---5---5---5---|
D|----6-------6-------6-------6---5---5---5---5---5---5---5---5---|

                                  Heyaaaaaaaaaaaaaaaaaa....
e|----------------------------------------------------------------|
b|----------------------------------------------------------------|
g|4---4---4---4---4---4---4---4---4---4---4---4---4---4---4---4---|
D|5---5---5---5---5---5---5---5---5---5---5---5---5---5---5---5---|
A|5---5---5---5---5---5---5---5---5---5---5---5---5---5---5---5---|
D|5---5---5---5---5---5---5---5---5---5---5---5---5---5---5---5---|

e|--------------------------------|
b|--------------------------------|
g|4---4---4---4---4---4---4---4---|
D|5---5---5---5---5---5---5---5---|
A|5---5---5---5---5---5---5---5---|
D|5---5---5---5---5---5---5---5---|

Outro

e|----------------------------------------------------------------|
b|----------------------------------------------------------------|
g|----------------------------------------------------------------|
D|--------------------2-p-0---------------------------2-p-0-------|
A|0---0---0---2---3-----------0-------0---0---2---3-----------0---|
D|0---0---0---0---0---0---0---0---0---0---0---0---0---0---0---0---| x4

      Mao     mao     mao     mao     mao     mao     mao     mao
e|----------------------------------------------------------------|
b|----------------------------------------------------------------|
g|5---5---5---5---5---5---5---5---5---4---4---4---4---4---4---4---|
D|----------------------------------------------------------------|
A|3---3---3---3---3---3---3---3---3---2---2---2---2---2---2---2---|
D|0---0---0---0---0---0---0---0---0---0---0---0---0---0---0---0---|

      mao     mao     mao     mao     mao     mao     mao     ah
e|----------------------------------------------------------------|
b|----------------------------------------------------------------|
g|4---3---3---3---3---3---3---3---3---2---2---2---2---------------|
D|----------------------------------------------------------------|
A|2---1---1---1---1---1---1---1---1---0---0---0---0---------------|
D|0---0---0---0---0---0---0---0---0---0---0---0---0---3---2---0---|

e|----------------------------------------------------------------|
b|----------------------------------------------------------------|
g|----------------------------------------------------------------|
D|--------------------2-p-0---------------------------2-p-0-------|
A|0---0---0---2---3-----------0-------0---0---2---3-----------0---|
D|0---0---0---0---0---0---0---0---0---0---0---0---0---0---0---0---| x4

      Mao     mao     mao     mao     mao     mao     mao     mao
e|----------------------------------------------------------------|
b|----------------------------------------------------------------|
g|5---5---5---5---5---5---5---5---5---5---5---5---5---5---5---5---|
D|----------------------------------------------------------------|
A|3---3---3---3---3---3---3---3---3---3---3---3---3---3---3---3---|
D|0---0---0---0---0---0---0---0---0---0---0---0---0---0---0---0---|

      mao     mao     mao     mao     mao         hey     yea
e|----------------------------------------------------------------|
b|----------------------------------------------------------------|
g|5---4---4---4---4---4---4---4---4---4---4---4---7---7---7---7---|
D|----------------------------------------------------------------|
A|3---2---2---2---2---2---2---2---2---2---2---2---5---5---5---5---|
D|0---0---0---0---0---0---0---0---0---0---0---0---0---0---0---0---|

e|----------------------------------------------------------------|
b|----------------------------------------------------------------|
g|7---7---7---7---7---7---7---7---7---7---7---7---7---7---7---7---|
D|4---4---4---4---4^^^^^^^^^^^4---4---4---4---4---4^^^^^^^^^^^4---|    *Just slowly bend 
to 5 and release.
A|5---5---5---5---5---5---5---5---5---5---5---5---5---5---5---5---|
D|0---0---0---0---0---0---0---0---0---0---0---0---0---0---0---0---| x 2

      Mao     mao     mao     mao     mao     mao     mao     mao
e|----------------------------------------------------------------|
b|----------------------------------------------------------------|
g|5---5---5---5---5---5---5---5---5---5---5---5---5---5---5---5---|
D|----------------------------------------------------------------|
A|3---3---3---3---3---3---3---3---3---3---3---3---3---3---3---3---|
D|0---0---0---0---0---0---0---0---0---0---0---0---0---0---0---0---|


      mao     mao     mao     mao ma  ma  ma      ma  ma  mao
e|----------------------------------------------------------------|
b|----------------------------------------------------------------|
g|4---4---4---4---4---4---4---4---5---5---5---5---5---5---5\\\2---|
D|----------------------------------------------------------------|
A|2---2---2---2---2---2---2---2---3---3---3---3---3---3---3\\\0---|
D|0---0---0---0---0---0---0---0---0---0---0---0---0---0---0---0---|

e|----------------------------------------------------------------|
b|----------------------------------------------------------------|
g|7---7---7---7---7---7---7---7---7---7---7---7---7---7---7---7---|
D|4---4---4---4---4^^^^^^^^^^^4---4---4---4---4---4^^^^^^^^^^^4---|
A|5---5---5---5---5---5---5---5---5---5---5---5---5---5---5---5---|
D|0---0---0---0---0---0---0---0---0---0---0---0---0---0---0---0---| x 2

      I   see it  com-ing             I   see it  com-ing...
e|----------------------------------------------------------------|
b|----------------------------------------------------------------|
g|7---7---7---7---7---7---7---7---7---7---7---7---7---7---7---7---|
D|4---4---4---4---4^^^^^^^^^^^4---4---4---4---4---4^^^^^^^^^^^4---|
A|5---5---5---5---5---5---5---5---5---5---5---5---5---5---5---5---|
D|0---0---0---0---0---0---0---0---0---0---0---0---0---0---0---0---| x 2

e|----|
b|----|
g|0---|
D|0---|
A|0---|
D|0---|

            
            
Suggest correction
Creating personal tab
Creating personal tab
You can edit any tab online and save it as your Personal.

You can edit, replace or remove any tab part or add personal notes – all changes will be seen only by you.

Personal tabs can be accessed anytime from any device, even offline.
Learn more »
comments
print report bad tab
3 comments total.
0 reply
paukowski 10 Jun 28, 2008 01:38 AM

Thanx for a good tab
my suggestion:

Middle 8

e|----------------------------------------------------------------|
b|----------------------------------------------------------------|
g|3---3---3---3---3---3---3---3---3---3---3---3---3---3---3---3---|
D|0---0---0---0---0---0---0---0---0---0---0---0---0---0---0---0---|
A|----------------------------------------------------------------|
D|5---5---5---5---5---5---5---5---5---5---5---5---5---5---5---5---|

e|----------------------------------------------------------------|
b|----------------------------------------------------------------|
g|10--10--10--10--10--10--10--10--10--10--10--10--10--10--10--10--|
D|0---0---0---0---0---0---0---0---0---0---0---0---0---0---0---0---|
A|(12)---------------------------(12)-----------------------------|
D|12--12--12--12--12--12--12--12--12--12--12--12--12--12--12--12--|


e|----------------------------------------------------------------|
b|10--10--10--10--10--10--10--10--10--10--10--10------------------|
g|10--10--10--10--10--10--10--10--10--10--10--10--9---9---9---9---|
D|0---0---0---0---0---0---0---0---0---0---0---0---0---0---0---0---|
A|----------------------------------------------------------------|
D|10--10--10--10--10--10--10--10--10--10--10--10--10--10--10--10--|

e|----------------------------------------------------------------|
b|----------------------------------------------------------------|
g|3---3---3---3---3---3---3---3---3---3---3---3---3s5-5---5s3-3---|
D|0---0---0---0---0---0---0---0---0---0---0---0---0---0---0---0---|
A|----------------------------------------------------------------|
D|5---5---5---5---5---5---5---5---5---5---5---5---5s7-7---7s5-5---|

+1 reply
raydiojed 10 Sep 08, 2012 08:03 PM

I got an idea for the bridge:

e|----------------------------------------------------------------|
b|----------------------------------------------------------------|
g|----9-------10------12------12----------------------------------|
D|------------------------------------------------7---8-------8---|
A|----7-------8-------10------10----------7---8-------------------|
D|0---0---0---0---0---0---0---0---7---8---------------------------| x2

0 reply
crippy07081963 10 Sep 20, 2016 09:22 PM, edited on March 11 2017, 03:26 am

best tab on this song great job on this I'm still working on this song and i appreciate the hard work you put in to this

guest
You may want to rate the tab now too:
select rating
Wanna post a correction for this tab? Suggest correction