Oops, an error
Loading. Please wait.
We have an official Faust Arp tab made by UG professional guitarists. Check out the tab »
×
6,244 views 48 this week
no commentswrite comment
1 2 3 4 5
x 4
add to favorites
×
Save as Personal and add changes to this tab that will be seen only by you. Learn more ›
×
You can save this tab as Personal to edit and correct it or add notes. All changes will be seen only by you. Learn more »
launch autoscroll
font size
0
reset
transpose
0
reset
simplify chords
display chords
guitar tuner
backing track
0:00
0:00
edit
Autoscroll
slow
fast
+/-
esc
set tempo
stop
Author
Strumming
There is no strumming pattern for this song yet. and get +5 IQ
"Faust Arp" by Radiohead

Track 6 on the first disc of In Rainbows
Chords are at the bottom


[Verse 1]
Bm
Wakey wakey
Bm
Rise and shine
     Bm        Bm/A     Bm/G
It's on again off again on again
B
Watch me fall
B
Like dominoes
B
In pretty patterns

[Verse 2]
Bm
Fingers in
     Bm
the blackbird pie
     Bm      Bm/A   Bm/G
I'm tingling tingling tingling
B
It's what you feel not
B                          B
What you ought to what you ought to

[Prechorus]
C                      C
Reasonable and sensible
G#
Dead from the neck up
C#maj7
      I guess I'm

[Chorus 1]
G         G/F      G/Eb
stuffed, stuffed, stuffed
      G/D
We thought you had it in you
      G G/F G/Eb
But nah nah nah
    G/D
For no real reason

[Verse 3]
Bm                    Bm
Squeeze the tubes and empty bottles
  Bm         Bm/A       Bm/G
I take a bow take a bow take a bow
     B
It's what you feel not
B                 B
What you ought to what you ought to

[Verse 4]
Bm                Bm
The elephant it's in the room is
Bm       Bm/A     Bm/G
Tumbling tumbling tumbling
   B             B    
In duplicate and triplicate in
B
Plastic bags and
C             C
Duplicate and triplicate
G#
Dead from the neck up
C#maj7
      I guess I'm

[Chorus 2]
G         G/F      G/Eb
stuffed, stuffed, stuffed
      G/D
We thought you had it in you
      G G/F G/Eb
But nah nah nah
   G/D                     G
Exactly where do you get off
       G/F        G/Eb
    Is enough is enough
G/D                      G       G/F             G/Eb
I love you but enough is enough, enough of that stuff
        G/D
There's no real reason

[Coda]
Bb6 | Bb6 | Am7 A7sus4 Am7 | Am7 Am7/G Am7| G | G | G | G
   
             Bb6 Bb6       Am7 A7sus4 Am7 | Am7 Am7/G Am7        G
You've got a head          full                              of feathers
              Bb6 Bb6       Am7 A7sus4 Am7 | Am7 Am7/G Am7       G
You're gonna melt          in                                to butter

[Chords]
G/F | G/Eb | G/D | G | G/F | G/Eb | G/D

   Bm   Bm/A  Bm/G    B     C     G#  C#maj7    G    G/F  G/Eb    G/D     Bb6      

e|--2-----2-----2-----2-----3-----4------4------3-----3-----3-----3-----1-----|
B|--3-----3-----3-----4-----5-----4------6------0-----0-----0-----0-----3----|
G|--4-----4-----4-----4-----5-----5------5------0-----0-----0-----0-----0----|
D|--4-----4-----4-----4-----5-----6------6------0-----3-----1-----0-----0-----|
A|--2-----0----(2)----2-----3-----6------4------------------------------1----|
E|--------------3-----------------4-------------3----------------------------|



        Am7   A7sus4 Am7/G

e|-------0-----0-----3------------------------------------------------------|
B|-------1-----3-----1------------------------------------------------------|
G|-------0-----0-----0------------------------------------------------------|
D|-------2-----2-----2------------------------------------------------------|
A|-------0-----0-----0------------------------------------------------------|
E|---------------------------------------------------------------------------|

            
            
Suggest correction
Creating personal tab
Creating personal tab
You can edit any tab online and save it as your Personal.

You can edit, replace or remove any tab part or add personal notes – all changes will be seen only by you.

Personal tabs can be accessed anytime from any device, even offline.
Learn more »
comments
print report bad tab
guest
You may want to rate the tab now too:
select rating
Wanna post a correction for this tab? Suggest correction