Oops, an error
Loading. Please wait.
We have an official Faust Arp tab made by UG professional guitarists. Check out the tab »
×
130,899 views 186 this week
14 commentsread comments
1 2 3 4 5
x 42
add to favorites
×
Save as Personal and add changes to this tab that will be seen only by you. Learn more ›
×
You can save this tab as Personal to edit and correct it or add notes. All changes will be seen only by you. Learn more »
launch autoscroll
font size
0
reset
how to read this tab
guitar tuner
backing track
0:00
0:00
edit
Autoscroll
slow
fast
+/-
esc
set tempo
stop
Author
Difficulty
Unregistered
intermediate
Faust Arp
by Radiohead
tabbed by Mickey Campbell

Note: This is my first tab ever, so be gentle.  These are the general picking patterns 
chord formations, the song is picked with a loose style in the actual recording though, 
some slight variations occur, but this is how I play it, and it sounds damn close.  Enjoy.

PART A
e|--------------------------------------------------------------------------|
B|3-------3-------3-------3-------3-----3-----3-----4-------4-------4-------|
G|-----4-------4-------4-------4—----4-----4-----4-------4-------4-------4--|
D|---4-------4-------4-------4-------------------------4-------4-------4----|
A|2-2-2-2-2-2-2-2-2-2-2-2-2-2-2-2-2-2-2-0-0-0-------------------------------|
E|--------------------------------------------3-3-3-2-2-2-2-2-2-2-2-2-2-2-2-|


PART B
e|----------------------------------------------------------|
B|3-------3-------3-----3-----3-----4-------4-------4-------|
G|-----4-------4-----4-----4—----4-------4-------4-------4--|
D|---4-------4-------------------------4-------4-------4----|
A|2-2-2-2-2-2-2-2-2-2-2-0-0-0-------------------------------|
E|----------------------------3-3-3-2-2-2-2-2-2-2-2-2-2-2-2-|


PART C
e|0-------0-----------------------|
B|-----1-------1—4--------6-------|
G|---3-------3---------5-------6--|
D|-------------------6-------6----|
A|1-1-1-1-1-1-1-1---------4-4-4-4-|
E|----------------4-4-4-4---------|


PART D
e|3----------3-------3-------3----3----------3-------3-------3----|
B|-----0-------0-------0-------0-----0---------0-------0-------0--|
G|---0---------------------------------0--------------------------|
D|--------3-------1-------0---------------3-------1-------0-------|
A|----------------------------------------------------------------|
E|3-3-3-3-3-3-3-3-3-3-3-3-3-3-3-3-3-3-3-3-3-3-3-3-3-3-3-3-3-3-3-3-|


PART E
e|--------1---------------3-----------------------3-------3-------|
B|3---------------1---------------1-------0-----------------------|
G|-----3-------3-------2-------2-------0-------0-------0----------|
D|---3-------3-------2-------2-------0-------0-------0-------0----|
A|1-1-1-1-1-1-1-1-0-0-0-0-0-0-0-0-------------------------------0-|
E|--------------------------------3-3-3-3-3-3-3-3-3-3-3-3-3-3-3---|


PART F
e|--------1---------------3-------|
B|3---------------1---------------|
G|-----3-------3-------2-------2--|
D|---3-------3-------2-------2----|
A|1-1-1-1-1-1-1-1-0-0-0-0-0-0-0-0-|
E|--------------------------------|


ORDER:
[PART A]
[PART B]
[PART C]
[PART D]

[PART B]X2
[PART C]
[PART D]X2
[PART E]
[PART F]
[PART D]

            
            
Suggest correction
Creating personal tab
Creating personal tab
You can edit any tab online and save it as your Personal.

You can edit, replace or remove any tab part or add personal notes – all changes will be seen only by you.

Personal tabs can be accessed anytime from any device, even offline.
Learn more »
comments
print report bad tab
14 comments total. Showing first comments.
0 reply
Repitition 10 Oct 16, 2007 08:13 PM

Haven't played it so don't know if it's accurate but I wanted to say that try to space the notes out more. It looks cluttered.

+3 reply
DeemunCow 235 Oct 17, 2007 06:03 PM

I think it looks fine. Really really great job. Sounds great.

0 reply
DeemunCow 235 Oct 17, 2007 06:10 PM

Oh wait. Just a small thing actually.
PART A
e|--------------------------------------------------------------------------|
B|3-------3-------3-------3-------3-----3-----3-----3-------4-------4-------|
G|-----4-------4-------4-------4—----4-----4-----4-------4-------4-------4--|
D|---4-------4-------4-------4-------------------------4-------4-------4----|
A|2-2-2-2-2-2-2-2-2-2-2-2-2-2-2-2-2-2-2-0-0-0-------------------------------|
E|--------------------------------------------3-3-3-2-2-2-2-2-2-2-2-2-2-2-2-|

guest
Wanna post a correction for this tab? Suggest correction