Oops, an error
Loading. Please wait.
We have an official High And Dry tab made by UG professional guitarists. Check out the tab »
×
86,375 views 90 this week
7 commentsread comments
1 2 3 4 5
x 35
add to favorites
×
Save as Personal and add changes to this tab that will be seen only by you. Learn more ›
×
You can save this tab as Personal to edit and correct it or add notes. All changes will be seen only by you. Learn more »
launch autoscroll
font size
0
reset
how to read this tab
guitar tuner
backing track
0:00
0:00
edit
Autoscroll
slow
fast
+/-
esc
set tempo
stop
----------------------------------
Radiohead - High And Dry
----------------------------------

Standard Tuning

[Solo]
  (let ring throughout)
e|---0-------0-----|--0-----0-----0-|---0-------0-----|--0---------0---|
B|-5---4-5-----4-5-|----4-5/7-5-4---|-5---4-5-----2---|----0-----4---4-|
G|-----------------|----------------|---------------4-|------4-6-------|
D|-----------------|----------------|-----------------|----------------|
A|-----------------|----------------|-----------------|----------------|
E|-----------------|----------------|-----------------|----------------|

                                                       (hold notes)
e|---0-------0-----|--0-----0-----0-|---0-------0-----|----------------|
B|-5---4-5-----4-5-|----4-5/7-5-4---|-5---4-5-----2---|----------------|
G|-----------------|----------------|---------------4-|----------------|
D|-----------------|----------------|-----------------|----------------|
A|-----------------|----------------|-----------------|----------------|
E|-----------------|----------------|-----------------|----------------|


*************************

| /  Slide up into note

*************************

            
            
Suggest correction
Creating personal tab
Creating personal tab
You can edit any tab online and save it as your Personal.

You can edit, replace or remove any tab part or add personal notes – all changes will be seen only by you.

Personal tabs can be accessed anytime from any device, even offline.
Learn more »
comments
print report bad tab
7 comments total. Showing first comments.
+4 reply
STRAT811 240 Mar 16, 2007 05:57 PM

Let the notes ring against the high open E.

-2 reply
08L1V10N 852 Dec 01, 2007 01:19 AM

it's more complexer than that

+1 reply
Leumas99 40 Dec 14, 2008 07:25 AM

ha ^"more complexer"^... nice ... try more complex - good tab by the way! I agree it rings against the e though and uses the b on the g string instead of open b

guest
Wanna post a correction for this tab? Suggest correction