Oops, an error
Loading. Please wait.

Hunting Bears tab

version 5
version 5

Whole song

Interactive

486 views 21 this week
no commentswrite comment
1 2 3 4 5
x 4
add to favorites
×
Save as Personal and add changes to this tab that will be seen only by you. Learn more ›
×
You can save this tab as Personal to edit and correct it or add notes. All changes will be seen only by you. Learn more »
launch autoscroll
font size
0
reset
how to read this tab
guitar tuner
edit
Autoscroll
slow
fast
+/-
esc
set tempo
stop
Author
Difficulty
-------------------------------------------------------------------------------
                            Hunting Bears - Radiohead
-------------------------------------------------------------------------------
Tabbed by: Kenny G

E-mail: kg8159@gmail.com

Tuning: standard

e|---------------------------------------------------------------------------|
B|---------------------------------------------------------------------------|
G|---------------------------------------------------------------------------|
D|---0h2---/7------0h2---/7\5---2--------------------------------------------| x2
A|-0-----0-------0-----0------0----------------------------------------------|
E|---------------------------------------------------------------------------|

e|---------------------------------------------------------------------------|
B|------10---------10--------------------------10----------10--------10------|
G|---10----------9----------------9h10h12---12----12----10---------9---------|
D|-0-----------0----------------0---------------------0----------0-----------|
A|---------------------------------------------------------------------------|
E|---------------------------------------------------------------------------|

                            *Repeat again in whole.*

This should work acoustically, electric has to play with pickups, etc. 
It is a correction of all tabs for this song but takes from them all.
Thanks, lemme know what you think

************************************

| /   slide up
| \   slide down
| h   hammer-on

************************************

            
            
Suggest correction
Creating personal tab
Creating personal tab
You can edit any tab online and save it as your Personal.

You can edit, replace or remove any tab part or add personal notes – all changes will be seen only by you.

Personal tabs can be accessed anytime from any device, even offline.
Learn more »
comments
print report bad tab
guest
You may want to rate the tab now too:
select rating
Wanna post a correction for this tab? Suggest correction