Oops, an error
Loading. Please wait.

I Promise tab

version 2
version 2

Whole song

  • This tab goes over how to play the melodies and ch... Show more

Video

  • This video guitar lesson for I Promise by Radiohea... Show more
1,045 views 36 this week
1 commentread comment
1 2 3 4 5
x 4
add to favorites
×
Save as Personal and add changes to this tab that will be seen only by you. Learn more ›
×
You can save this tab as Personal to edit and correct it or add notes. All changes will be seen only by you. Learn more »
launch autoscroll
font size
0
reset
how to read this tab
guitar tuner
edit
Autoscroll
slow
fast
+/-
esc
set tempo
stop
About this tab version
This tab goes over how to play the melodies and chords of 'I Promise' making use of different strumming and fretting hand techniques such as the drone note technique and the thumb over the neck chord forming technique. Keep an eye out for the lyrical cues for each section of the song which help make this tab easier to follow along with. If you need further instruction on how to follow this tab, visit this YouTube link for a tutorial with in depth descriptions and exercises to build up to the techniques used in this song: https://www.youtube.com/watch?v=Zs_IoicplhY. Was this info helpful? Yes No
This tab goes over how to play the melodies and chords of 'I Promise' making use of different strumming and 
fretting hand techniques such as the drone note technique and the thumb over the neck chord forming technique. 
Keep an eye out for the lyrical cues for each section of the song which help make this tab easier to follow 
along with. 

If you need further instruction on how to follow this tab, visit this 
YouTube link for a tutorial with in depth descriptions and exercises to build up to the techniques used in 
this song: 

https://www.youtube.com/watch?v=Zs_IoicplhY

[Intro]
(0:00)
    Eno5  Esus2no5    Eno5  Esus2no5                   A5/E  Eno5        A5/E  Eno5
    1  e  +  a  2  e  +  a  3  e  +  a  4  e  +  a     1  e  +  a  2  e  +  a  3  e  +  a  4  e  +  a
e|--------------------------------------------------|--------------------------------------------------|
b|--------------------------------------------------|--------------------------------------------------|
G|--------------------------------------------------|--------------------------------------------------|
D|--------------------------------------------------|--------------------------------------------------|
A|--11----9-----9-----11----9-----9-----9--9--9--9--|--12----11----11----12----11----11----11-11-11-11-|
E|--0-----0-----0-----0-----0-----0-----0--0--0--0--|--0-----0-----0-----0-----0-----0-----0--0--0--0--|

 Esus2no5 E        Esus2no5 E           E5                   E   
    1  e  +  a  2  e  +  a  3  e  +  a  4  e  +  a     1  e  +  a  2  e  +  a  3  e  +  a  4  e  +  a
e|--------------------------------------0--0--0--0--|--0-----------------------------------------------|
b|--------------------------------------0--0--0--0--|--0-----------------------------------------------|
G|--------------------------------------9--9--9--9--|--9-----------------------------------------------|
D|--------------------------------------9--9--9--9--|--9-----------------------------------------------|
A|--9-----7-----7-----9-----7-----7-----7--7--7--7--|--7-----------7-----7-----7-----7-----7--7--7--7--|
E|--0-----0-----0-----0-----0-----0-----0--0--0--0--|--0-----------0-----0-----0-----0-----0--0--0--0--|

    Eno5  Esus2no5    Eno5  Esus2no5                   A5/E  Eno5        A5/E  Eno5
    1  e  +  a  2  e  +  a  3  e  +  a  4  e  +  a     1  e  +  a  2  e  +  a  3  e  +  a  4  e  +  a
e|--------------------------------------------------|--------------------------------------------------|
b|--------------------------------------------------|--------------------------------------------------|
G|--------------------------------------------------|--------------------------------------------------|
D|--------------------------------------------------|--------------------------------------------------|
A|--11----9-----9-----11----9-----9-----9--9--9--9--|--12----11----11----12----11----11----11-11-11-11-|
E|--0-----0-----0-----0-----0-----0-----0--0--0--0--|--0-----0-----0-----0-----0-----0-----0--0--0--0--|

 Esus2no5 E        Esus2no5 E           E5                   E   
    1  e  +  a  2  e  +  a  3  e  +  a  4  e  +  a     1  e  +  a  2  e  +  a  3  e  +  a  4  e  +  a
e|--------------------------------------0--0--0--0--|--0-----------------------------------------------|
b|--------------------------------------0--0--0--0--|--0-----------------------------------------------|
G|--------------------------------------9--9--9--9--|--9-----------------------------------------------|
D|--------------------------------------9--9--9--9--|--9-----------------------------------------------|
A|--9-----7-----7-----9-----7-----7-----7--7--7--7--|--7-----7--7--7-----7-----7--7--7-----7--7--7--7--|
E|--0-----0-----0-----0-----0-----0-----0--0--0--0--|--0-----0--0--0-----0-----0--0--0-----0--0--0--0--|

[Verse]
(0:24)"I won't run away no more":

    Eno5  Esus2no5    Eno5  Esus2no5                   A5/E  Eno5        A5/E  Eno5
    1  e  +  a  2  e  +  a  3  e  +  a  4  e  +  a     1  e  +  a  2  e  +  a  3  e  +  a  4  e  +  a
e|--------------------------------------------------|--------------------------------------------------|
b|--------------------------------------------------|--------------------------------------------------|
G|--------------------------------------------------|--------------------------------------------------|
D|--------------------------------------------------|--------------------------------------------------|
A|--11----9-----9-----11----9-----9-----9--9--9--9--|--12----11----11----12----11----11----11-11-11-11-|
E|--0-----0-----0-----0-----0-----0-----0--0--0--0--|--0-----0-----0-----0-----0-----0-----0--0--0--0--|

 Esus2no5 E        Esus2no5 E           E5                   E   
    1  e  +  a  2  e  +  a  3  e  +  a  4  e  +  a     1  e  +  a  2  e  +  a  3  e  +  a  4  e  +  a
e|--------------------------------------0--0--0--0--|--0-----------------------------------------------|
b|--------------------------------------0--0--0--0--|--0-----------------------------------------------|
G|--------------------------------------9--9--9--9--|--9-----------------------------------------------|
D|--------------------------------------9--9--9--9--|--9-----------------------------------------------|
A|--9-----7-----7-----9-----7-----7-----7--7--7--7--|--7-----------7-----7-----7-----7-----7--7--7--7--|
E|--0-----0-----0-----0-----0-----0-----0--0--0--0--|--0-----------0-----0-----0-----0-----0--0--0--0--|

    Eno5  Esus2no5    Eno5  Esus2no5                   A5/E  Eno5        A5/E  Eno5
    1  e  +  a  2  e  +  a  3  e  +  a  4  e  +  a     1  e  +  a  2  e  +  a  3  e  +  a  4  e  +  a
e|--------------------------------------------------|--------------------------------------------------|
b|--------------------------------------------------|--------------------------------------------------|
G|--------------------------------------------------|--------------------------------------------------|
D|--------------------------------------------------|--------------------------------------------------|
A|--11----9-----9-----11----9-----9-----9--9--9--9--|--12----11----11----12----11----11----11-11-11-11-|
E|--0-----0-----0-----0-----0-----0-----0--0--0--0--|--0-----0-----0-----0-----0-----0-----0--0--0--0--|

 Esus2no5 E        Esus2no5 E           E5                   E   
    1  e  +  a  2  e  +  a  3  e  +  a  4  e  +  a     1  e  +  a  2  e  +  a  3  e  +  a  4  e  +  a
e|--------------------------------------0--0--0--0--|--0-----------------------------------------------|
b|--------------------------------------0--0--0--0--|--0-----------------------------------------------|
G|--------------------------------------9--9--9--9--|--9-----------------------------------------------|
D|--------------------------------------9--9--9--9--|--9-----------------------------------------------|
A|--9-----7-----7-----9-----7-----7-----7--7--7--7--|--7-----7--7--7-----7-----7--7--7-----7--7--7--7--|
E|--0-----0-----0-----0-----0-----0-----0--0--0--0--|--0-----0--0--0-----0-----0--0--0-----0--0--0--0--|

[Chorus]
(0:49)"Even when you lock me out": 

B and Bsus4 chords use thumb to hold down the 7th fret of low E string

    B                                                                                      Bsus4
    1  e  +  a  2  e  +  a  3  e  +  a  4  e  +  a     1  e  +  a  2  e  +  a  3  e  +  a  4  e  +  a
e|--7-----7--7--7-----7-----7--7--7-----7--7--7--7--|--7-----7--7--7-----7-----7--7--7-----7--7--7--7--|
b|--7-----7--7--7-----7-----7--7--7-----7--7--7--7--|--7-----7--7--7-----7-----7--7--7-----7--7--7--7--|
G|--8-----8--8--8-----8-----8--8--8-----8--8--8--8--|--8-----8--8--8-----8-----8--8--8-----9--9--9--9--|
D|--9-----9--9--9-----9-----9--9--9-----9--9--9--9--|--9-----9--9--9-----9-----9--9--9-----9--9--9--9--|
A|--x-----x--x--x-----x-----x--x--x-----x--x--x--x--|--x-----x--x--x-----x-----x--x--x-----x--x--x--x--|
E|--7-----7--7--7-----7-----7--7--7-----7--7--7--7--|--7-----7--7--7-----7-----7--7--7-----7--7--7--7--|

    Esus2 E5          Esus2 E5                         Esus2 E5          Esus2 E5
    1  e  +  a  2  e  +  a  3  e  +  a  4  e  +  a     1  e  +  a  2  e  +  a  3  e  +  a  4  e  +  a
e|--0-----0--0--0-----0-----0--0--0-----0--0--0--0--|--0-----0--0--0-----0-----0--0--0-----0--0--0--0--|
b|--0-----0--0--0-----0-----0--0--0-----0--0--0--0--|--0-----0--0--0-----0-----0--0--0-----0--0--0--0--|
G|--9-----9--9--9-----9-----9--9--9-----9--9--9--9--|--9-----9--9--9-----9-----9--9--9-----9--9--9--9--|
D|--x-----x--x--x-----x-----x--x--x-----x--x--x--x--|--x-----x--x--x-----x-----x--x--x-----x--x--x--x--|
A|--9-----7--7--7-----9-----7--7--7-----7--7--7--7--|--9-----7--7--7-----9-----7--7--7-----7--7--7--7--|
E|--0-----0--0--0-----0-----0--0--0-----0--0--0--0--|--0-----0--0--0-----0-----0--0--0-----0--0--0--0--|

    B                                                                                      Bsus4
    1  e  +  a  2  e  +  a  3  e  +  a  4  e  +  a     1  e  +  a  2  e  +  a  3  e  +  a  4  e  +  a
e|--7-----7--7--7-----7-----7--7--7-----7--7--7--7--|--7-----7--7--7-----7-----7--7--7-----7--7--7--7--|
b|--7-----7--7--7-----7-----7--7--7-----7--7--7--7--|--7-----7--7--7-----7-----7--7--7-----7--7--7--7--|
G|--8-----8--8--8-----8-----8--8--8-----8--8--8--8--|--8-----8--8--8-----8-----8--8--8-----9--9--9--9--|
D|--9-----9--9--9-----9-----9--9--9-----9--9--9--9--|--9-----9--9--9-----9-----9--9--9-----9--9--9--9--|
A|--x-----x--x--x-----x-----x--x--x-----x--x--x--x--|--x-----x--x--x-----x-----x--x--x-----x--x--x--x--|
E|--7-----7--7--7-----7-----7--7--7-----7--7--7--7--|--7-----7--7--7-----7-----7--7--7-----7--7--7--7--|

    Esus2 E5          Esus2 E5                         Esus2 E5          Esus2 E5
    1  e  +  a  2  e  +  a  3  e  +  a  4  e  +  a     1  e  +  a  2  e  +  a  3  e  +  a  4  e  +  a
e|--0-----0--0--0-----0-----0--0--0-----0--0--0--0--|--0-----0--0--0-----0-----0--0--0-----0--0--0--0--|
b|--0-----0--0--0-----0-----0--0--0-----0--0--0--0--|--0-----0--0--0-----0-----0--0--0-----0--0--0--0--|
G|--9-----9--9--9-----9-----9--9--9-----9--9--9--9--|--9-----9--9--9-----9-----9--9--9-----9--9--9--9--|
D|--x-----x--x--x-----x-----x--x--x-----x--x--x--x--|--x-----x--x--x-----x-----x--x--x-----x--x--x--x--|
A|--9-----7--7--7-----9-----7--7--7-----7--7--7--7--|--9-----7--7--7-----9-----7--7--7-----7--7--7--7--|
E|--0-----0--0--0-----0-----0--0--0-----0--0--0--0--|--0-----0--0--0-----0-----0--0--0-----0--0--0--0--|

[Verse]
(1:14)"I don't wish that I'm spread":

    Eno5  Esus2no5    Eno5  Esus2no5                   A5/E  Eno5        A5/E  Eno5
    1  e  +  a  2  e  +  a  3  e  +  a  4  e  +  a     1  e  +  a  2  e  +  a  3  e  +  a  4  e  +  a
e|--------------------------------------------------|--------------------------------------------------|
b|--------------------------------------------------|--------------------------------------------------|
G|--------------------------------------------------|--------------------------------------------------|
D|--------------------------------------------------|--------------------------------------------------|
A|--11----9-----9-----11----9-----9-----9--9--9--9--|--12----11----11----12----11----11----11-11-11-11-|
E|--0-----0-----0-----0-----0-----0-----0--0--0--0--|--0-----0-----0-----0-----0-----0-----0--0--0--0--|

 Esus2no5 E        Esus2no5 E           E5                   E   
    1  e  +  a  2  e  +  a  3  e  +  a  4  e  +  a     1  e  +  a  2  e  +  a  3  e  +  a  4  e  +  a
e|--------------------------------------0--0--0--0--|--0-----------------------------------------------|
b|--------------------------------------0--0--0--0--|--0-----------------------------------------------|
G|--------------------------------------9--9--9--9--|--9-----------------------------------------------|
D|--------------------------------------9--9--9--9--|--9-----------------------------------------------|
A|--9-----7-----7-----9-----7-----7-----7--7--7--7--|--7-----------7-----7-----7-----7-----7--7--7--7--|
E|--0-----0-----0-----0-----0-----0-----0--0--0--0--|--0-----------0-----0-----0-----0-----0--0--0--0--|

    Eno5  Esus2no5    Eno5  Esus2no5                   A5/E  Eno5        A5/E  Eno5
    1  e  +  a  2  e  +  a  3  e  +  a  4  e  +  a     1  e  +  a  2  e  +  a  3  e  +  a  4  e  +  a
e|--------------------------------------------------|--------------------------------------------------|
b|--------------------------------------------------|--------------------------------------------------|
G|--------------------------------------------------|--------------------------------------------------|
D|--------------------------------------------------|--------------------------------------------------|
A|--11----9-----9-----11----9-----9-----9--9--9--9--|--12----11----11----12----11----11----11-11-11-11-|
E|--0-----0-----0-----0-----0-----0-----0--0--0--0--|--0-----0-----0-----0-----0-----0-----0--0--0--0--|

 Esus2no5 E        Esus2no5 E           E5                   E   
    1  e  +  a  2  e  +  a  3  e  +  a  4  e  +  a     1  e  +  a  2  e  +  a  3  e  +  a  4  e  +  a
e|--------------------------------------0--0--0--0--|--0-----------------------------------------------|
b|--------------------------------------0--0--0--0--|--0-----------------------------------------------|
G|--------------------------------------9--9--9--9--|--9-----------------------------------------------|
D|--------------------------------------9--9--9--9--|--9-----------------------------------------------|
A|--9-----7-----7-----9-----7-----7-----7--7--7--7--|--7-----7--7--7-----7-----7--7--7-----7--7--7--7--|
E|--0-----0-----0-----0-----0-----0-----0--0--0--0--|--0-----0--0--0-----0-----0--0--0-----0--0--0--0--|

[Chorus]
(1:38)"Even when the ship is wrecked":

B and Bsus4 chords use thumb to hold down the 7th fret of low E string

    B                                                                                      Bsus4
    1  e  +  a  2  e  +  a  3  e  +  a  4  e  +  a     1  e  +  a  2  e  +  a  3  e  +  a  4  e  +  a
e|--7-----7--7--7-----7-----7--7--7-----7--7--7--7--|--7-----7--7--7-----7-----7--7--7-----7--7--7--7--|
b|--7-----7--7--7-----7-----7--7--7-----7--7--7--7--|--7-----7--7--7-----7-----7--7--7-----7--7--7--7--|
G|--8-----8--8--8-----8-----8--8--8-----8--8--8--8--|--8-----8--8--8-----8-----8--8--8-----9--9--9--9--|
D|--9-----9--9--9-----9-----9--9--9-----9--9--9--9--|--9-----9--9--9-----9-----9--9--9-----9--9--9--9--|
A|--x-----x--x--x-----x-----x--x--x-----x--x--x--x--|--x-----x--x--x-----x-----x--x--x-----x--x--x--x--|
E|--7-----7--7--7-----7-----7--7--7-----7--7--7--7--|--7-----7--7--7-----7-----7--7--7-----7--7--7--7--|

    Esus2 E5          Esus2 E5                         Esus2 E5          Esus2 E5
    1  e  +  a  2  e  +  a  3  e  +  a  4  e  +  a     1  e  +  a  2  e  +  a  3  e  +  a  4  e  +  a
e|--0-----0--0--0-----0-----0--0--0-----0--0--0--0--|--0-----0--0--0-----0-----0--0--0-----0--0--0--0--|
b|--0-----0--0--0-----0-----0--0--0-----0--0--0--0--|--0-----0--0--0-----0-----0--0--0-----0--0--0--0--|
G|--9-----9--9--9-----9-----9--9--9-----9--9--9--9--|--9-----9--9--9-----9-----9--9--9-----9--9--9--9--|
D|--x-----x--x--x-----x-----x--x--x-----x--x--x--x--|--x-----x--x--x-----x-----x--x--x-----x--x--x--x--|
A|--9-----7--7--7-----9-----7--7--7-----7--7--7--7--|--9-----7--7--7-----9-----7--7--7-----7--7--7--7--|
E|--0-----0--0--0-----0-----0--0--0-----0--0--0--0--|--0-----0--0--0-----0-----0--0--0-----0--0--0--0--|

    B                                                                                      Bsus4
    1  e  +  a  2  e  +  a  3  e  +  a  4  e  +  a     1  e  +  a  2  e  +  a  3  e  +  a  4  e  +  a
e|--7-----7--7--7-----7-----7--7--7-----7--7--7--7--|--7-----7--7--7-----7-----7--7--7-----7--7--7--7--|
b|--7-----7--7--7-----7-----7--7--7-----7--7--7--7--|--7-----7--7--7-----7-----7--7--7-----7--7--7--7--|
G|--8-----8--8--8-----8-----8--8--8-----8--8--8--8--|--8-----8--8--8-----8-----8--8--8-----9--9--9--9--|
D|--9-----9--9--9-----9-----9--9--9-----9--9--9--9--|--9-----9--9--9-----9-----9--9--9-----9--9--9--9--|
A|--x-----x--x--x-----x-----x--x--x-----x--x--x--x--|--x-----x--x--x-----x-----x--x--x-----x--x--x--x--|
E|--7-----7--7--7-----7-----7--7--7-----7--7--7--7--|--7-----7--7--7-----7-----7--7--7-----7--7--7--7--|

    Esus2 E5          Esus2 E5                         Esus2 E5          Esus2 E5
    1  e  +  a  2  e  +  a  3  e  +  a  4  e  +  a     1  e  +  a  2  e  +  a  3  e  +  a  4  e  +  a
e|--0-----0--0--0-----0-----0--0--0-----0--0--0--0--|--0-----0--0--0-----0-----0--0--0-----0--0--0--0--|
b|--0-----0--0--0-----0-----0--0--0-----0--0--0--0--|--0-----0--0--0-----0-----0--0--0-----0--0--0--0--|
G|--9-----9--9--9-----9-----9--9--9-----9--9--9--9--|--9-----9--9--9-----9-----9--9--9-----9--9--9--9--|
D|--x-----x--x--x-----x-----x--x--x-----x--x--x--x--|--x-----x--x--x-----x-----x--x--x-----x--x--x--x--|
A|--9-----7--7--7-----9-----7--7--7-----7--7--7--7--|--9-----7--7--7-----9-----7--7--7-----7--7--7--7--|
E|--0-----0--0--0-----0-----0--0--0-----0--0--0--0--|--0-----0--0--0-----0-----0--0--0-----0--0--0--0--|

[Bridge]
(2:03)
    E5                                                 A(add2)
    1  e  +  a  2  e  +  a  3  e  +  a  4  e  +  a     1  e  +  a  2  e  +  a  3  e  +  a  4  e  +  a
e|--0-----0--0--0-----0-----0--0--0-----0--0--0--0--|--0-----0--0--0-----0-----0--0--0-----0--0--0--0--|
b|--0-----0--0--0-----0-----0--0--0-----0--0--0--0--|--0-----0--0--0-----0-----0--0--0-----0--0--0--0--|
G|--9-----9--9--9-----9-----9--9--9-----9--9--9--9--|--8-----8--8--8-----8-----8--8--8-----8--8--8--8--|
D|--9-----9--9--9-----9-----9--9--9-----9--9--9--9--|--7-----7--7--7-----7-----7--7--7-----7--7--7--7--|
A|--7-----7--7--7-----7-----7--7--7-----7--7--7--7--|--7-----7--7--7-----7-----7--7--7-----7--7--7--7--|
E|--0-----0--0--0-----0-----0--0--0-----0--0--0--0--|--5-----5--5--5-----5-----5--5--5-----5--5--5--5--|

    E5
    1  e  +  a  2  e  +  a  3  e  +  a  4  e  +  a     1  e  +  a  2  e  +  a  3  e  +  a  4  e  +  a
e|--0-----0--0--0-----0-----0--0--0-----0--0--0--0--|--0-----0--0--0-----0-----0--0--0-----0--0--0--0--|
b|--0-----0--0--0-----0-----0--0--0-----0--0--0--0--|--0-----0--0--0-----0-----0--0--0-----0--0--0--0--|
G|--9-----9--9--9-----9-----9--9--9-----9--9--9--9--|--9-----9--9--9-----9-----9--9--9-----9--9--9--9--|
D|--9-----9--9--9-----9-----9--9--9-----9--9--9--9--|--9-----9--9--9-----9-----9--9--9-----9--9--9--9--|
A|--7-----7--7--7-----7-----7--7--7-----7--7--7--7--|--7-----7--7--7-----7-----7--7--7-----7--7--7--7--|
E|--0-----0--0--0-----0-----0--0--0-----0--0--0--0--|--0-----0--0--0-----0-----0--0--0-----0--0--0--0--|

    E5                                                 A(add2)
    1  e  +  a  2  e  +  a  3  e  +  a  4  e  +  a     1  e  +  a  2  e  +  a  3  e  +  a  4  e  +  a
e|--0-----0--0--0-----0-----0--0--0-----0--0--0--0--|--0-----0--0--0-----0-----0--0--0-----0--0--0--0--|
b|--0-----0--0--0-----0-----0--0--0-----0--0--0--0--|--0-----0--0--0-----0-----0--0--0-----0--0--0--0--|
G|--9-----9--9--9-----9-----9--9--9-----9--9--9--9--|--8-----8--8--8-----8-----8--8--8-----8--8--8--8--|
D|--9-----9--9--9-----9-----9--9--9-----9--9--9--9--|--7-----7--7--7-----7-----7--7--7-----7--7--7--7--|
A|--7-----7--7--7-----7-----7--7--7-----7--7--7--7--|--7-----7--7--7-----7-----7--7--7-----7--7--7--7--|
E|--0-----0--0--0-----0-----0--0--0-----0--0--0--0--|--5-----5--5--5-----5-----5--5--5-----5--5--5--5--|

    E5
    1  e  +  a  2  e  +  a  3  e  +  a  4  e  +  a     1  e  +  a  2  e  +  a  3  e  +  a  4  e  +  a
e|--0-----0--0--0-----0-----0--0--0-----0--0--0--0--|--0-----0--0--0-----0-----0--0--0-----0--0--0--0--|
b|--0-----0--0--0-----0-----0--0--0-----0--0--0--0--|--0-----0--0--0-----0-----0--0--0-----0--0--0--0--|
G|--9-----9--9--9-----9-----9--9--9-----9--9--9--9--|--9-----9--9--9-----9-----9--9--9-----9--9--9--9--|
D|--9-----9--9--9-----9-----9--9--9-----9--9--9--9--|--9-----9--9--9-----9-----9--9--9-----9--9--9--9--|
A|--7-----7--7--7-----7-----7--7--7-----7--7--7--7--|--7-----7--7--7-----7-----7--7--7-----7--7--7--7--|
E|--0-----0--0--0-----0-----0--0--0-----0--0--0--0--|--0-----0--0--0-----0-----0--0--0-----0--0--0--0--|

[Verse]
(2:28)"I won't run away no more"

    Eno5  Esus2no5    Eno5  Esus2no5                   A5/E  Eno5        A5/E  Eno5
    1  e  +  a  2  e  +  a  3  e  +  a  4  e  +  a     1  e  +  a  2  e  +  a  3  e  +  a  4  e  +  a
e|--------------------------------------------------|--------------------------------------------------|
b|--------------------------------------------------|--------------------------------------------------|
G|--------------------------------------------------|--------------------------------------------------|
D|--------------------------------------------------|--------------------------------------------------|
A|--11----9-----9-----11----9-----9-----9--9--9--9--|--12----11----11----12----11----11----11-11-11-11-|
E|--0-----0-----0-----0-----0-----0-----0--0--0--0--|--0-----0-----0-----0-----0-----0-----0--0--0--0--|

 Esus2no5 E        Esus2no5 E           E5                   E   
    1  e  +  a  2  e  +  a  3  e  +  a  4  e  +  a     1  e  +  a  2  e  +  a  3  e  +  a  4  e  +  a
e|--------------------------------------0--0--0--0--|--0-----------------------------------------------|
b|--------------------------------------0--0--0--0--|--0-----------------------------------------------|
G|--------------------------------------9--9--9--9--|--9-----------------------------------------------|
D|--------------------------------------9--9--9--9--|--9-----------------------------------------------|
A|--9-----7-----7-----9-----7-----7-----7--7--7--7--|--7-----7--7--7-----7-----7--7--7-----7--7--7--7--|
E|--0-----0-----0-----0-----0-----0-----0--0--0--0--|--0-----0--0--0-----0-----0--0--0-----0--0--0--0--|

    Eno5  Esus2no5    Eno5  Esus2no5                   A5/E  Eno5        A5/E  Eno5
    1  e  +  a  2  e  +  a  3  e  +  a  4  e  +  a     1  e  +  a  2  e  +  a  3  e  +  a  4  e  +  a
e|--------------------------------------------------|--------------------------------------------------|
b|--------------------------------------------------|--------------------------------------------------|
G|--------------------------------------------------|--------------------------------------------------|
D|--------------------------------------------------|--------------------------------------------------|
A|--11----9-----9-----11----9-----9-----9--9--9--9--|--12----11----11----12----11----11----11-11-11-11-|
E|--0-----0-----0-----0-----0-----0-----0--0--0--0--|--0-----0-----0-----0-----0-----0-----0--0--0--0--|

 Esus2no5 E        Esus2no5 E           E5                   E   
    1  e  +  a  2  e  +  a  3  e  +  a  4  e  +  a     1  e  +  a  2  e  +  a  3  e  +  a  4  e  +  a
e|--------------------------------------0--0--0--0--|--0-----------------------------------------------|
b|--------------------------------------0--0--0--0--|--0-----------------------------------------------|
G|--------------------------------------9--9--9--9--|--9-----------------------------------------------|
D|--------------------------------------9--9--9--9--|--9-----------------------------------------------|
A|--9-----7-----7-----9-----7-----7-----7--7--7--7--|--7-----7--7--7-----7-----7--7--7-----7--7--7--7--|
E|--0-----0-----0-----0-----0-----0-----0--0--0--0--|--0-----0--0--0-----0-----0--0--0-----0--0--0--0--|

[Chorus]
(1:53)"Even when the ship is wrecked":

B and Bsus4 chords use thumb to hold down the 7th fret of low E string

    B                                                                                      Bsus4
    1  e  +  a  2  e  +  a  3  e  +  a  4  e  +  a     1  e  +  a  2  e  +  a  3  e  +  a  4  e  +  a
e|--7-----7--7--7-----7-----7--7--7-----7--7--7--7--|--7-----7--7--7-----7-----7--7--7-----7--7--7--7--|
b|--7-----7--7--7-----7-----7--7--7-----7--7--7--7--|--7-----7--7--7-----7-----7--7--7-----7--7--7--7--|
G|--8-----8--8--8-----8-----8--8--8-----8--8--8--8--|--8-----8--8--8-----8-----8--8--8-----9--9--9--9--|
D|--9-----9--9--9-----9-----9--9--9-----9--9--9--9--|--9-----9--9--9-----9-----9--9--9-----9--9--9--9--|
A|--x-----x--x--x-----x-----x--x--x-----x--x--x--x--|--x-----x--x--x-----x-----x--x--x-----x--x--x--x--|
E|--7-----7--7--7-----7-----7--7--7-----7--7--7--7--|--7-----7--7--7-----7-----7--7--7-----7--7--7--7--|

    Esus2 E5          Esus2 E5                         Esus2 E5          Esus2 E5
    1  e  +  a  2  e  +  a  3  e  +  a  4  e  +  a     1  e  +  a  2  e  +  a  3  e  +  a  4  e  +  a
e|--0-----0--0--0-----0-----0--0--0-----0--0--0--0--|--0-----0--0--0-----0-----0--0--0-----0--0--0--0--|
b|--0-----0--0--0-----0-----0--0--0-----0--0--0--0--|--0-----0--0--0-----0-----0--0--0-----0--0--0--0--|
G|--9-----9--9--9-----9-----9--9--9-----9--9--9--9--|--9-----9--9--9-----9-----9--9--9-----9--9--9--9--|
D|--x-----x--x--x-----x-----x--x--x-----x--x--x--x--|--x-----x--x--x-----x-----x--x--x-----x--x--x--x--|
A|--9-----7--7--7-----9-----7--7--7-----7--7--7--7--|--9-----7--7--7-----9-----7--7--7-----7--7--7--7--|
E|--0-----0--0--0-----0-----0--0--0-----0--0--0--0--|--0-----0--0--0-----0-----0--0--0-----0--0--0--0--|

    B                                                                                      Bsus4
    1  e  +  a  2  e  +  a  3  e  +  a  4  e  +  a     1  e  +  a  2  e  +  a  3  e  +  a  4  e  +  a
e|--7-----7--7--7-----7-----7--7--7-----7--7--7--7--|--7-----7--7--7-----7-----7--7--7-----7--7--7--7--|
b|--7-----7--7--7-----7-----7--7--7-----7--7--7--7--|--7-----7--7--7-----7-----7--7--7-----7--7--7--7--|
G|--8-----8--8--8-----8-----8--8--8-----8--8--8--8--|--8-----8--8--8-----8-----8--8--8-----9--9--9--9--|
D|--9-----9--9--9-----9-----9--9--9-----9--9--9--9--|--9-----9--9--9-----9-----9--9--9-----9--9--9--9--|
A|--x-----x--x--x-----x-----x--x--x-----x--x--x--x--|--x-----x--x--x-----x-----x--x--x-----x--x--x--x--|
E|--7-----7--7--7-----7-----7--7--7-----7--7--7--7--|--7-----7--7--7-----7-----7--7--7-----7--7--7--7--|

    Esus2 E5          Esus2 E5                         Esus2 E5          Esus2 E5
    1  e  +  a  2  e  +  a  3  e  +  a  4  e  +  a     1  e  +  a  2  e  +  a  3  e  +  a  4  e  +  a
e|--0-----0--0--0-----0-----0--0--0-----0--0--0--0--|--0-----0--0--0-----0-----0--0--0-----0--0--0--0--|
b|--0-----0--0--0-----0-----0--0--0-----0--0--0--0--|--0-----0--0--0-----0-----0--0--0-----0--0--0--0--|
G|--9-----9--9--9-----9-----9--9--9-----9--9--9--9--|--9-----9--9--9-----9-----9--9--9-----9--9--9--9--|
D|--x-----x--x--x-----x-----x--x--x-----x--x--x--x--|--x-----x--x--x-----x-----x--x--x-----x--x--x--x--|
A|--9-----7--7--7-----9-----7--7--7-----7--7--7--7--|--9-----7--7--7-----9-----7--7--7-----7--7--7--7--|
E|--0-----0--0--0-----0-----0--0--0-----0--0--0--0--|--0-----0--0--0-----0-----0--0--0-----0--0--0--0--|

[Bridge]
(3:17)
    E5                                                 A(add2)
    1  e  +  a  2  e  +  a  3  e  +  a  4  e  +  a     1  e  +  a  2  e  +  a  3  e  +  a  4  e  +  a
e|--0-----0--0--0-----0-----0--0--0-----0--0--0--0--|--0-----0--0--0-----0-----0--0--0-----0--0--0--0--|
b|--0-----0--0--0-----0-----0--0--0-----0--0--0--0--|--0-----0--0--0-----0-----0--0--0-----0--0--0--0--|
G|--9-----9--9--9-----9-----9--9--9-----9--9--9--9--|--8-----8--8--8-----8-----8--8--8-----8--8--8--8--|
D|--9-----9--9--9-----9-----9--9--9-----9--9--9--9--|--7-----7--7--7-----7-----7--7--7-----7--7--7--7--|
A|--7-----7--7--7-----7-----7--7--7-----7--7--7--7--|--7-----7--7--7-----7-----7--7--7-----7--7--7--7--|
E|--0-----0--0--0-----0-----0--0--0-----0--0--0--0--|--5-----5--5--5-----5-----5--5--5-----5--5--5--5--|

    E5
    1  e  +  a  2  e  +  a  3  e  +  a  4  e  +  a     1  e  +  a  2  e  +  a  3  e  +  a  4  e  +  a
e|--0-----0--0--0-----0-----0--0--0-----0--0--0--0--|--0-----0--0--0-----0-----0--0--0-----0--0--0--0--|
b|--0-----0--0--0-----0-----0--0--0-----0--0--0--0--|--0-----0--0--0-----0-----0--0--0-----0--0--0--0--|
G|--9-----9--9--9-----9-----9--9--9-----9--9--9--9--|--9-----9--9--9-----9-----9--9--9-----9--9--9--9--|
D|--9-----9--9--9-----9-----9--9--9-----9--9--9--9--|--9-----9--9--9-----9-----9--9--9-----9--9--9--9--|
A|--7-----7--7--7-----7-----7--7--7-----7--7--7--7--|--7-----7--7--7-----7-----7--7--7-----7--7--7--7--|
E|--0-----0--0--0-----0-----0--0--0-----0--0--0--0--|--0-----0--0--0-----0-----0--0--0-----0--0--0--0--|

    E5                                                 A(add2)
    1  e  +  a  2  e  +  a  3  e  +  a  4  e  +  a     1  e  +  a  2  e  +  a  3  e  +  a  4  e  +  a
e|--0-----0--0--0-----0-----0--0--0-----0--0--0--0--|--0-----0--0--0-----0-----0--0--0-----0--0--0--0--|
b|--0-----0--0--0-----0-----0--0--0-----0--0--0--0--|--0-----0--0--0-----0-----0--0--0-----0--0--0--0--|
G|--9-----9--9--9-----9-----9--9--9-----9--9--9--9--|--8-----8--8--8-----8-----8--8--8-----8--8--8--8--|
D|--9-----9--9--9-----9-----9--9--9-----9--9--9--9--|--7-----7--7--7-----7-----7--7--7-----7--7--7--7--|
A|--7-----7--7--7-----7-----7--7--7-----7--7--7--7--|--7-----7--7--7-----7-----7--7--7-----7--7--7--7--|
E|--0-----0--0--0-----0-----0--0--0-----0--0--0--0--|--5-----5--5--5-----5-----5--5--5-----5--5--5--5--|

    E5
    1  e  +  a  2  e  +  a  3  e  +  a  4  e  +  a     1  e  +  a  2  e  +  a  3  e  +  a  4  e  +  a
e|--0-----0--0--0-----0-----0--0--0-----0--0--0--0--|--0-----0--0--0-----0-----0--0--0-----0--0--0--0--|
b|--0-----0--0--0-----0-----0--0--0-----0--0--0--0--|--0-----0--0--0-----0-----0--0--0-----0--0--0--0--|
G|--9-----9--9--9-----9-----9--9--9-----9--9--9--9--|--9-----9--9--9-----9-----9--9--9-----9--9--9--9--|
D|--9-----9--9--9-----9-----9--9--9-----9--9--9--9--|--9-----9--9--9-----9-----9--9--9-----9--9--9--9--|
A|--7-----7--7--7-----7-----7--7--7-----7--7--7--7--|--7-----7--7--7-----7-----7--7--7-----7--7--7--7--|
E|--0-----0--0--0-----0-----0--0--0-----0--0--0--0--|--0-----0--0--0-----0-----0--0--0-----0--0--0--0--|

[Outro]
(3:41)"I won't run away no more":

    Eno5  Esus2no5    Eno5  Esus2no5                   A5/E  Eno5        A5/E  Eno5
    1  e  +  a  2  e  +  a  3  e  +  a  4  e  +  a     1  e  +  a  2  e  +  a  3  e  +  a  4  e  +  a
e|--------------------------------------------------|--------------------------------------------------|
b|--------------------------------------------------|--------------------------------------------------|
G|--------------------------------------------------|--------------------------------------------------|
D|--------------------------------------------------|--------------------------------------------------|
A|--11----9-----9-----11----9-----9-----9--9--9--9--|--12----11----11----12----11----11----11-11-11-11-|
E|--0-----0-----0-----0-----0-----0-----0--0--0--0--|--0-----0-----0-----0-----0-----0-----0--0--0--0--|

 Esus2no5 E        Esus2no5 E           E5                   
    1  e  +  a  2  e  +  a  3  e  +  a  4  e  +  a     1  e  +  a  2  e  +  a  3  e  +  a  4  e  +  a
e|--------------------------------------0--0--0--0--|--0-----------------------------------------------|
b|--------------------------------------0--0--0--0--|--0-----------------------------------------------|
G|--------------------------------------9--9--9--9--|--9-----------------------------------------------|
D|--------------------------------------9--9--9--9--|--9-----------------------------------------------|
A|--9-----7-----7-----9-----7-----7-----7--7--7--7--|--7-----------------------------------------------|
E|--0-----0-----0-----0-----0-----0-----0--0--0--0--|--0-----------------------------------------------|


************************************

| x  Dead note

************************************

            
            
Suggest correction
Creating personal tab
Creating personal tab
You can edit any tab online and save it as your Personal.

You can edit, replace or remove any tab part or add personal notes – all changes will be seen only by you.

Personal tabs can be accessed anytime from any device, even offline.
Learn more »
comments
print report bad tab
1 comment total.
0 reply
crippy07081963 10 Jun 15, 2017 01:32 PM

perfect imho

guest
You may want to rate the tab now too:
select rating
Wanna post a correction for this tab? Suggest correction