Oops, an error
Loading. Please wait.

Identikit tab

version 3
version 3

Whole song

Interactive

11,914 views 69 this week
4 commentsread comments
1 2 3 4 5
x 15
add to favorites
×
Save as Personal and add changes to this tab that will be seen only by you. Learn more ›
×
You can save this tab as Personal to edit and correct it or add notes. All changes will be seen only by you. Learn more »
launch autoscroll
font size
0
reset
how to read this tab
guitar tuner
backing track
0:00
0:00
edit
Autoscroll
slow
fast
+/-
esc
set tempo
stop
Author
-----------------------------------------------------------------------
                         Radiohead - Identikit
-----------------------------------------------------------------------
Guitar is played with a delay pedal set on 1 repeat. Delay time is equal to
6 16th notes or something like that. It must feel like the repeated note 
lands just before the 'three'. Without this effect, the tab is quite worthless.
Guitar is in standard tuning, no capo. 
BPM of the studio version is about 150.7.

The beat of the studio version starts at the 'two', which is a bit confusing
at first.
s
The solo is a bit hard to follow, just improvise a lot on that part.

-----
Intro
-----

 |1   2   3   4 | 1   2   3   4 | 1   2   3   4 | 1   2   3   4 | 
e|--------------------------------------------------------------|
B|--------------------------------------------------------------|
G|--------------------------------------------------------------|
D|------------------------------------2---2-----------6-6-6-7-6-|
A|--------------------------------------------------------------|
E|2----------------------------------------(0)------------------|  (repeat)


Last time before 'broken hearts make it rain:

 |1 2 3 4|1 2 3 4|1 2 3 4|1 2 3 4 | 
e|--------------------------------|
B|--------------------------------|
G|--------------------------------|
D|------------------2-2-----------|
A|------------------------4-2-----|
E|---2----------------(0)-----5-4-| 

-----
Chorus
-----

 |1 2 3 4|1 2 3 4|1 2 3 4|1 2 3 4|1 2 3 4|1 2 3 4 |  
e|------------------------------------------------|
B|------------------------------------------------|
G|4---4---4---4---4---4---4---4---4---4---4---4---|
D|4---4---4---4---4---4---4---4---4---4---4---4---|
A|2---2---0---0---x---x---x---x---x---x---x---x---|
E|----------------3---3---2---2---0---0---0---0---| x3

 |1 2 3 4|1 2 3 4|1 2 3 4|1 2 3 4 |  
e|--------------------------------|
B|--------------------------------|
G|4---4---4---4---4---4---4---4---|
D|4---4---4---4---4---4---4---4---|
A|2---2---2---2---2---2---2---2---|
E|--------------------------------| 

-----
16-bar sort of bridge with the choir. 
-----

 |1 2 3 4|1 2 3 4|1 2 3 4|1 2 3 4 |
e|--------------------------------|
B|--------------------------------|
G|--------------------9-------9---|
D|----4-------4-------------------|
A|----------------7-7-----7-7-----|
E|2-2-----2-2---------------------| x3

For the last 4 bars, there is this:

 |1 2 3 4|1 2 3 4|1 2 3 4|1 2 3 4 |
e|--------------------------------|
B|--------------------------------|
G|----7-------7-------6-----------|
D|--------------------------------|
A|5-5-----5-5-----4-4-----4-2-----|
E|----------------------------5-4-| x1

-----
Verse
-----

 |1 2 3 4|1 2 3 4|1 2 3 4|1 2 3 4|1 2 3 4|1 2 3 4|1 2 3 4 || 1   2   3   4 |
e|--------------------------------------------------------||---------------|
B|--------------------------------------------------------||---------------|
G|------------------------------------7-------7-------6---||-6---7---9---6-|
D|----4-------4-------2-------2---------------------------||---------------|
A|--------------------------------5-5-----5-5-----4-4-----||---------------|
E|2-2-----2-2-----0-0-----0-0-----------------------------||---------------|  I

 |1 2 3 4|1 2 3 4|1 2 3 4|1 2 3 4|1 2 3 4|1 2 3 4|1 2 3 4 || 1   2   3   4 |
e|--------------------------------------------------------||---------------|
B|--------------------------------------------------------||-7---9---10--7-|
G|------------------------------------7-------7-------6---||---------------|
D|----4-------4-------2-------2---------------------------||---------------|
A|--------------------------------5-5-----5-5-----4-4-----||---------------|
E|2-2-----2-2-----0-0-----0-0-----------------------------||---------------|  II

 |1   2   3   4 | 1   2   3   4 | 1   2   3   4 | 1   2   3   4 | 
e|--------------------------------------------------------------|
B|--------------------------------------------------------------|
G|--------------------------------------------------------------|
D|--------16--------------16--------------18--------------14----|
A|--------------------------------------------------------------|
E|14--14----------14--14----------16--16----------12--12--------| 

 |1   2   3   4 | 1   2   3   4 | 1   2   3   4 | 1   2   3   4 | 
e|--------------------------------------------------------------|
B|--------------------------------------------------------------|
G|--------------------------------------------------------------|
D|--------19--------------12--------------18--------------------|
A|------------------------------------------------5---4---2---0-|
E|17--17----------10--10----------16--16------------------------|             III

 |1 2 3 4|1 2 3 4|1 2 3 4|1 2 3 4|1 2 3 4|1 2 3 4|1 2 3 4|1 2 3 4 |
e|----------------------------------------------------------------|
B|----------------------------------------------------------------|
G|------------------------6-7-9-6-----7------7--------6---6-7-9-6-|
D|----4-------4-------2-------------------------------------------|
A|--------------------------------5-5----5-5------4-4-------------|
E|2-2-----2-2-----0-0---------------------------------------------|           IV

-----
Solo
-----

 |1 2 3 4|1 2 3 4|1 2 3 4|1 2 3 4|1 2 3 4|1 2 3 4|1 2 3 4|1 2 3 4 |
e|--------------------------------7-5-----------------------------|
B|----------------------------------------------------------------|
G|7-9-6-7-9-6-7-9---7-9-----6-7-9-----6-7-9-----6-9-----6-7-9-11/-|
D|----------------7-----7-9-----------------7-9-----7-9-----------|
A|----------------------------------------------------------------|
E|----------------------------------------------------------------|

 |1  e  2  e  3  e  4  e  1  e  2  e  3  e  4  e  |
e|12-14-12-14-14-12-14-12-12-14-12-14-12-14-14-12-|
B|------------------------------------------------|
G|------------------------------------------------|
D|------------------------------------------------|
A|------------------------------------------------|
E|------------------------------------------------| (hard to follow this part)

 |1  e  2  e  3  e  4  e  |
e|14-12-14-16-12-14-16-12-|
B|------------------------|
G|------------------------|
D|------------------------|
A|------------------------|
E|------------------------|

 |1   e   2   e   3   e   4   e   |
e|----21--21--19--19--17--17--16--|
B|--------------------------------|
G|--------------------------------|
D|--------------------------------|
A|--------------------------------|
E|--------------------------------|

 |1   e   2   e   3   e   4   e   1   e   2   e   3   e   4   e  |
e|17------16------14--16------14--16--14--16------14--21--21--19-|
B|----17------17----------17------------------17-----------------|
G|---------------------------------------------------------------|
D|---------------------------------------------------------------|
A|---------------------------------------------------------------|
E|---------------------------------------------------------------|

 |1   e   2   e   3   e   4   e   1   e   2   e   3   e   4   e  |
e|21--17--19--16--16------14--16--14--16--17--16--17--16--19--17-|
B|--------------------17-----------------------------------------|
G|---------------------------------------------------------------|
D|---------------------------------------------------------------|
A|---------------------------------------------------------------|
E|---------------------------------------------------------------|

 |1   e   2   e   3   e   4   e   1   e   2   e   3   e   4   e  |
e|19--17--19--17--19--21--17--19--21--19--17--17--21--17--19--21-|
B|---------------------------------------------------------------|
G|---------------------------------------------------------------|
D|---------------------------------------------------------------|
A|---------------------------------------------------------------|
E|---------------------------------------------------------------|

 |1   e   2   e   3   e   4   e   1   e   2   e   3   e   4   e  |
e|17--21--21--21--21--21--21--21--21--21--21--21--21--21--/------|
B|---------------------------------------------------------------|
G|---------------------------------------------------------------|
D|---------------------------------------------------------------|
A|---------------------------------------------------------------|
E|---------------------------------------------------------------|

Hope that's kinda close. Just hit some of those notes and the
delay makes it cool.

Feel free to comment if you want to say something about it!


************************************

| /   slide up
| \   slide down
| h   hammer-on
| p   pull-off
| ~   vibrato
| +   harmonic
| x   Mute note
| b   Bend
| pb  Pre-bend
| br  Bend release
| pbr Pre-bend release
| brb Bend release bend

************************************

            
            
Suggest correction
Creating personal tab
Creating personal tab
You can edit any tab online and save it as your Personal.

You can edit, replace or remove any tab part or add personal notes – all changes will be seen only by you.

Personal tabs can be accessed anytime from any device, even offline.
Learn more »
comments
print report bad tab
4 comments total. Showing first comments.
-2 reply
bufkin 10 May 29, 2016 07:12 AM

could you find out the bpm of the delay time by using beatsperminuteonline.com/ or some other website? thx

+2 reply
Colian 10 Aug 04, 2016 06:54 AM

The repeat happens 600ms after the original note

0 reply
Xnimez 976 Aug 04, 2016 07:54 AM

Thanks ;)

guest
You may want to rate the tab now too:
select rating
Wanna post a correction for this tab? Suggest correction