Oops, an error
Loading. Please wait.
We have Chord Pro version of Just.
It's the closest thing you can get to the original song and it has interactive parts. Check out the tab »
×
4,886 views 6 this week
no commentswrite comment
1 2 3 4 5
1 last vote to show rating
add to favorites
×
Save as Personal and add changes to this tab that will be seen only by you. Learn more ›
×
You can save this tab as Personal to edit and correct it or add notes. All changes will be seen only by you. Learn more »
launch autoscroll
font size
0
reset
guitar tuner
backing track
0:00
0:00
edit
Autoscroll
slow
fast
+/-
esc
set tempo
stop
Author
Difficulty
Where you see letters in the tab lines, count them like numbers above 10. A is the 
10th fret, B the 11th, and so on.

[INTRO]
  C        D#       D*    F           C        D#       D*    F  F
G:--------|--------|--------|--------|--------|--------|--------|--------|
D:--------|--------|--------|--------|------0-|1-1-1-1-|0-1-2-3-|--------|
A:--------|--------|--------|--------|3-3-3---|--------|--------|--0-1-2-|
E:--------|--------|--------|--------|--------|--------|--------|--------|

  C        D#       D*    F  F     
G:--------|--------|--------|--------|
D:------0-|1-1-1-1-|0-------|--------|
A:3-3-3---|--------|--3-----|--------|
E:--------|--------|----3-1-|----3---|

[VERSE]
  Am              Am         Ab               Ab                D#      E#
    Can’t get the stink off         He’s been hanging round for days
  Am             Am          Ab               Ab           D#       Bb
    Comes like a comet           Suckered you but not your friends
  Am            Am           Ab               Ab          G  F#  F
  One day he’ll get to you      And teach you how to be a ho-ly  cow

  Am       Am       Ab       Ab       D#       F  
G:--------|--------|--------|--------|--------|--------|
D:--------|--------|--------|--------|1--/5-3~~3-5/7---|
A:0-------|--------|--------|--------|--3-----|--------|
E:--------|--------|4-------|--------|--------|--------|

  Am       Am       Ab       Ab       D#       Bb
G:--------|--------|--------|--------|----0---|--------|
D:--------|--------|--------|--------|1-3-----|----0---|
A:0-------|--------|--------|--------|------1~~1-3-----|
E:--------|--------|4-------|--------|--------|--------|

  Am       Am       Ab       Ab       G        F#       F         
G:--------|--------|--------|--------|--------|--------|--------|--------|
D:--------|--------|--------|--------|5-6-5---|4-5-4---|3-------|--------|
A:0-0-023~~3-2-0---|--------|--------|------6-|------5-|--------|--------|
E:--------|--------|4-4-468~~8-6-4---|--------|--------|--------|--------|

[CHORUS]
                   C            F#          F                  F
  You do it to yourself     You do      And that’s what really hurts
                   C            F#          F              F
  You do it to yourself    Just you         You and no one else
               C          D#        D*    F
  You do it to yourself
               C          D#        D*    F
  You do it to yourself

  C        F#       F        F        C        F#       F        F
G:--------|--------|--------|--------|--------|--------|--------|--------|
D:--------|--------|--------|--------|--------|--------|--------|--------|
A:3-------|--------|--------|--0-1-2-|3-------|--------|--------|--0-1-2-|
E:--------|2-------|1-------|--------|--------|2-------|1-------|--------|

  C        D#       D*    F           C        D#       D*    F  F
G:--------|--------|--------|--------|--------|--------|--------|--------|
D:------0-|1-1-1-1-|0-1-2-3-|--------|------0-|1-1-1-1-|0-------|--------|
A:3-3-3---|--------|--------|--0-1-2-|3-3-3---|--------|--3-----|--------|
E:--------|--------|--------|--------|--------|--------|----3-1-|----3---|

[VERSE]
  Am             Am        Ab         Ab           D#      E#
    Don’t get my sympathy     Hanging out the 15th floor
  Am                   Am              Ab                Ab                  D#   Bb
    You’ve changed the locks three times  He still comes reeling through the floor
  Am             Am         Ab              Ab            G   F#  F
    One day I’ll get to you   And teach you how to get to pur-est hell

  Am       Am       Ab       Ab       D#       F  
G:--------|--------|--------|--------|--------|--------|
D:--------|--------|--------|--------|1--/5-3~~3-5/7---|
A:0-------|--------|--------|--------|--3-----|--------|
E:--------|--------|4-------|--------|--------|-------3|

  Am       Am       Ab       Ab       D#       Bb
G:--------|--------|--------|--------|----0---|--------|
D:--------|--------|--------|--------|1-3-----|----0---|
A:0-------|--------|--------|--------|------1~~1-3-----|
E:--------|--------|4-------|--------|--------|--------|

  Am       Am       Ab       Ab       G        F#       F         
G:--------|--------|--------|--------|--------|--------|--------|--------|
D:--------|--------|--------|--------|5-6-5---|4-5-4---|3-------|--------|
A:0-0-023~~3-2-0---|--------|--------|------6-|------5-|--------|--------|
E:--------|--------|4-4-468~~8-6-4---|--------|--------|--------|--------|

[CHORUS]
                   C            F#          F                  F
  You do it to yourself     You do      And that’s what really hurts
                   C            F#          F              F
  You do it to yourself    Just you         You and no one else
               C          D#        D*    F
  You do it to yourself
               C          D#        D*    F
  You do it to yourself

  C        F#       F        F        C        F#       F        F
G:--------|--------|--------|--------|--------|--------|--------|--------|
D:--------|--------|--------|--------|--------|--------|--------|--------|
A:3-------|--------|--------|--0-1-2-|3-------|--------|--------|--0-1-2-|
E:--------|2-------|1-------|--------|--------|2-------|1-------|--------|

  C        D#       D*    F           C        D#       D*    F  F
G:--------|--------|--------|--------|--------|--------|--------|--------|
D:------0-|1-1-1-1-|0-1-2-3-|--------|------0-|1-1-1-1-|0-------|--------|
A:3-3-3---|--------|--------|--0-1-2-|3-3-3---|--------|--3-----|--------|
E:--------|--------|--------|--------|--------|--------|----3-1-|----3---|

[INSTRUMENTAL]
  E        D        C#m      G        E        D        C#m      G        
G:--------|--------|--------|--------|--------|--------|--------|--------|
D:--------|--------|--------|--------|--------|--------|--------|--------|
A:7-------|5-------|4------//A-------|7-------|5-------|4------//A-------|
E:--------|--------|--------|--------|--------|--------|--------|--------|
  Am       Am       Ab       Ab       D#       Bb
G:--------|--------|--------|--------|----0---|--------|
D:--------|--------|--------|--------|1-3-----|----0---|
A:0-------|--------|--------|--------|------1~~1-3-----|
E:--------|--------|4-------|--------|--------|--------|
  Am       Am       Ab       Ab       G        F#       F         
G:--------|--------|--------|--------|--------|--------|--------|--------|
D:--------|--------|--------|--------|5-6-5---|4-5-4---|3-------|--------|
A:0-------|--------|--------|--------|------6-|------5-|--------|--------|
E:--------|--------|4-------|--------|--------|--------|--------|--------|
  C        F#       F        F        C        F#       F        F
G:--------|--------|--------|--------|--------|--------|--------|--------|
D:--------|--------|--------|--------|--------|--------|--------|--------|
A:3-------|--------|--------|--0-1-2-|3-------|--------|--------|--0-1-2-|
E:--------|2-------|1-------|--------|--------|2-------|1-------|--------|

[CHORUS]
                   C            F#          F                  F
  You do it to yourself     You do      And that’s what really hurts
                   C            F#          F              F
  You do it to yourself    Just you         You and no one else
               C          D#        D*      F
  You do it to your-               -self
               C          D#        D*      F
  You do it to your-               -self

  C        F#       F        F        C        F#       F        F
G:--------|--------|--------|--------|--------|--------|--------|--------|
D:--------|--------|--------|--------|--------|--------|--------|--------|
A:3-------|--------|--------|--0-1-2-|3-------|--------|--------|--0-1-2-|
E:--------|2-------|1-------|--------|--------|2-------|1-------|--------|

  C        D#       D*    F           C        D#       D*    F  F
G:--------|--------|--------|--------|--------|--------|--------|--------|
D:------0-|1-1-1-1-|0-1-2-3-|--------|------0-|1-1-1-1-|0-------|--------|
A:3-3-3---|--------|--------|--0-1-2-|3-3-3---|--------|--3-----|--------|
E:--------|--------|--------|--------|--------|--------|----3-1-|----3---|

[CODA]
  C        D#       D*    F           C        D#       D*    F  F
G:--------|--------|--------|--------|--------|--------|--------|--------|
D:------0-|1-1-1-1-|0-1-2-3-|--------|------0-|1-1-1-1-|0-------|--------|
A:3-3-3---|--------|--------|--0-1-2-|3-3-3---|--------|--3-----|--------|
E:--------|--------|--------|--------|--------|--------|----3-1-|----3---|

  C        Bb       Am       D#       C        Bb       Am       D#
G:--------|--------|--------|--------|--------|--------|--------|--------|
D:--------|--------|--------|11-1--13|--------|--------|--------|353-53--|
A:3-------|1-------|0-------|--3--3--|3-------|1-------|0-------|---5--5-|
E:--------|--------|--------|--------|--------|--------|--------|--------|

  C        Bb       Am       D#       C        Bb       Am       D#
G:--------|--------|--------|--------|--------|--------|--------|--------|
D:--------|--------|--------|11-1--13|--------|--------|--------|--------|
A:3-------|1-------|0-------|--3--3--|3-------|1-------|0------//6-------|
E:--------|--------|--------|--------|--------|--------|--------|--------|

  C        Bb       Am       D#       C        Bb       Am       D#
G:--------|--------|--------|--------|--------|--------|--------|--------|
D:--------|--------|--------|11-1--13|--------|--------|--------|--------|
A:3-------|1-------|0-------|--3--3--|3-------|1-------|0------//6-------|
E:--------|--------|--------|--------|--------|--------|--------|--------|

  C        Bb       Am       D#       C        Bb       Am       
G:--------|--------|--------|--------|--------|--------|--|
D:--------|--------|--------|11-1--13|--------|--------|--|
A:3-------|1-------|0-------|--3--3--|3-------|1-------|0-|
E:--------|--------|--------|--------|--------|--------|--|

Tabbed by Michael Oxner
moxner@nbnet.nb.ca
January 5th, 2012

            
            
Suggest correction
Creating personal tab
Creating personal tab
You can edit any tab online and save it as your Personal.

You can edit, replace or remove any tab part or add personal notes – all changes will be seen only by you.

Personal tabs can be accessed anytime from any device, even offline.
Learn more »
Give kudos to tab author, rate the tab!
1 2 3 4 5
comments
print report bad tab
guest
You may want to rate the tab now too:
select rating
Wanna post a correction for this tab? Suggest correction