Oops, an error
Loading. Please wait.

Myxomatosis bass

version 1
version 1

Whole song

Interactive

15,895 views 36 this week
1 commentread comment
1 2 3 4 5
x 10
add to favorites
×
Save as Personal and add changes to this tab that will be seen only by you. Learn more ›
×
You can save this tab as Personal to edit and correct it or add notes. All changes will be seen only by you. Learn more »
launch autoscroll
font size
0
reset
guitar tuner
edit
Autoscroll
slow
fast
+/-
esc
set tempo
stop
Author
I think the main is played by Ed, if I'm right Colin is just playing
the same riff under it. I guarantee the notes are right and this
is how I play it. If you have a more comfortable method, by all means
be my guest. Listen to the track closely and you'll hear the rhytm.

*A*
G|--------------------------------------|
D|-5-----4-----2-2----------------9--10-|
A|----7-----5-------3--5-5--2--3--------|
E|--------------------------------------|

*B*
G|-----------------------------7-7------|
D|-5-5-----4-4-----2---7--5--------7--9-|
A|------7-------5------------7----------|
E|--------------------------------------|

*C*
G|----------------------------------|
D|-5-----4-----2---------0--2-/-10--|
A|----7-----5------2--3-------------|
E|----------------------------------|
  ^this part is played after the first tongie-tied break and Thom
   comes back in with the vocals. Not sure if it's right, what with
   all the processed sounds and all, but pretty close.

The rest is just variations I hear in the song. Use whenever and
however you see fit. Mix it up and have fun:

G|---------------------------------------|
D|-5-----4-----2-2----------------(9--7)-| * both these are used
A|----7-----5-------3--5-5--2--3--(2--0)-| * here and there
E|---------------------------------------|

|----------------------------------------|
D|-5-5-----4-4-----2---7--5--------------| * this one's just a
A|------7-------5------------7-5-5--0--2-|   variation of Riff B
E|---------------------------------------|
                      
No bass during tongue-tied part. Should be about it. Once again, a 
great song by Radiohead. Later...

            
            
Suggest correction
Creating personal tab
Creating personal tab
You can edit any tab online and save it as your Personal.

You can edit, replace or remove any tab part or add personal notes – all changes will be seen only by you.

Personal tabs can be accessed anytime from any device, even offline.
Learn more »
comments
print report bad tab
1 comment total.
0 reply
Dhensley43 10 Dec 17, 2014 05:12 PM

For those who want to do more grooving and less jumping around the bass...

G|-----------------------------4--5-------|
D|-5-----4--------------------------------|
A|----7-----5---7------5------------------|
E|-----------------8-----7--8-------------|

G|------------------------------7-----4--|
D|-5-5-----4-4--------7--5---------7-----|
A|------7-------5--7----------7----------|
E|---------------------------------------|

G|--------------------------------5------|
D|-5-----4-------------------------------|
A|----7-----5--7----------5--7-----------|
E|------------------7--8-----------------|

guest
You may want to rate the tab now too:
select rating
Wanna post a correction for this tab? Suggest correction